Song name
# A B C D E F G H I J K L M N O P Q R S T U V W X Y Z

Misc Unsigned Bands - Myles Haslam - What Do I Do tab

January, 30th
And this was a really hard song to tab
Cos it was only on myspace if u have any problems email me at
Quiksilver_myles@hotmail.com
U gotta listen to the song for the patterns
I hope it all goes well ;)


Intro: (x2)
e|---5----------------|
B|-7---7--5--5---5----|
G|---0----0----0---0--| x3
D|--------------------|
A|-7---7-----5---5----|
E|--------------------|

e|--------------------|
B|-3---3---5---5------|
G|---0---0---0---0----| x1
D|--------------------|
A|-3---3---5---5------|
E|--------------------|

Verse

Im not Perfect, But i
e|-----------------------|
B|-7---7---5---5---------|
G|---0---0---0---0-------|
D|-----------------------|
A|-7---7---5---5---------|
E|-----------------------|

Will Never Shake, im not
e|-----------------------|
B|-7---7---5---5---------|
G|---0---0---0---0-------|
D|-----------------------|
A|-7---7---5---5---------|
E|-----------------------|

Giving Up Without a fight
e|-----------------------|
B|-7---7---5---5---------|
G|---0---0---0---0-------|
D|-----------------------|
A|-7---7---5---5---------|
E|-----------------------|
                    putting,
e|-----------------------|
B|-3---3---5---5---------|
G|---0---0---0---0-------|
D|-----------------------|
A|-3---3---5---5---------|
E|-----------------------|

Love On the line is like
e|-----------------------|
B|-7---7---5---5---------|
G|---0---0---0---0-------|
D|-----------------------|
A|-7---7---5---5---------|
E|-----------------------|

Standing on a Landmine, but its
e|-----------------------|
B|-7---7---5---5---------|
G|---0---0---0---0-------|
D|-----------------------|
A|-7---7---5---5---------|
E|-----------------------|

Better than watching you go
e|-----------------------|
B|-7---7---5---5---------|
G|---0---0---0---0-------|
D|-----------------------|
A|-7---7---5---5---------|
E|-----------------------|

e|-----------------------|
B|-3---3---5---5---------|
G|---0---0---0---0-------|
D|-----------------------|
A|-3---3---5---5---------|
E|-----------------------|

And so as i step out there's no
e|-----------------------|
B|-7---7---5---5---------|
G|---0---0---0---0-------|
D|-----------------------|
A|-7---7---5---5---------|
E|-----------------------|

Shadow of doubt, that this
e|-----------------------|
B|-7---7---5---5---------|
G|---0---0---0---0-------|
D|-----------------------|
A|-7---7---5---5---------|
E|-----------------------|

Could just be one big mistake
e|-----------------------|
B|-7---7---5---5---------|
G|---0---0---0---0-------|
D|-----------------------|
A|-7---7---5---5---------|
E|-----------------------|

e|-----------------------|
B|-3---3---5---5---------|
G|---0---0---0---0-------|
D|-----------------------|
A|-3---3---5---5---------|
E|-----------------------|

My Favourite Triumph as i
e|-----------------------|
B|-7---7---5---5---------|
G|---0---0---0---0-------|
D|-----------------------|
A|-7---7---5---5---------|
E|-----------------------|

Come up for the highjump, and your
e|-----------------------|
B|-7---7---5---5---------|
G|---0---0---0---0-------|
D|-----------------------|
A|-7---7---5---5---------|
E|-----------------------|

Face is all that i can see
e|-----------------------|
B|-7---7---5---5---------|
G|---0---0---0---0-------|
D|-----------------------|
A|-7---7---5---5---------|
E|-----------------------|

e|-----------------------|
B|-3---3---5---5---------|
G|---0---0---0---0-------|
D|-----------------------|
A|-3---3---5---5---------|
E|-----------------------|

Chorus:

Watch Me as i go
e|---------------------------|
B|-5---3---8---8---8---10----|
G|---0---0---0---0---0----0--|
D|---------------------------|
A|-5---3---8---8---8---10----|
E|---------------------------|

Watch me as i grow
e|---------------------------|
B|-5---3---8---8---8---10----|
G|---0---0---0---0---0----0--|
D|---------------------------|
A|-5---3---8---8---8---10----|
E|---------------------------|

Kiss me like i'll cry
e|---------------------------|
B|-5---3---8---8---8---10----|
G|---0---0---0---0---0----0--|
D|---------------------------|
A|-5---3---8---8---8---10----|
E|---------------------------|

Kiss me like i'll die
e|---------------------------|
B|-5---3---8---8---8---10----|
G|---0---0---0---0---0----0--|
D|---------------------------|
A|-5---3---8---8---8---10----|
E|---------------------------|

Verse 2:

This is my last night
e|-----------------------|
B|-7---7---5---5---------|
G|---0---0---0---0-------|
D|-----------------------|
A|-7---7---5---5---------|
E|-----------------------|

My Last stand and my last fight
e|-----------------------|
B|-7---7---5---5---------|
G|---0---0---0---0-------|
D|-----------------------|
A|-7---7---5---5---------|
E|-----------------------|

So im, gonna go down swinging
e|-----------------------|
B|-7---7---5---5---------|
G|---0---0---0---0-------|
D|-----------------------|
A|-7---7---5---5---------|
E|-----------------------|

e|-----------------------|
B|-3---3---5---5---------|
G|---0---0---0---0-------|
D|-----------------------|
A|-3---3---5---5---------|
E|-----------------------|

All this sadness, is now
e|-----------------------|
B|-7---7---5---5---------|
G|---0---0---0---0-------|
D|-----------------------|
A|-7---7---5---5---------|
E|-----------------------|

Turning into madness, and i
e|-----------------------|
B|-7---7---5---5---------|
G|---0---0---0---0-------|
D|-----------------------|
A|-7---7---5---5---------|
E|-----------------------|

Need your hands to pull me out
e|-----------------------|
B|-7---7---5---5---------|
G|---0---0---0---0-------|
D|-----------------------|
A|-7---7---5---5---------|
E|-----------------------|

e|-----------------------|
B|-3---3---5---5---------|
G|---0---0---0---0-------|
D|-----------------------|
A|-3---3---5---5---------|
E|-----------------------|

Chorus:

Shake me out of this
e|---------------------------|
B|-5---3---8---8---8---10----|
G|---0---0---0---0---0----0--|
D|---------------------------|
A|-5---3---8---8---8---10----|
E|---------------------------|

Take me out of this
e|---------------------------|
B|-5---3---8---8---8---10----|
G|---0---0---0---0---0----0--|
D|---------------------------|
A|-5---3---8---8---8---10----|
E|---------------------------|

Carry me with love
e|---------------------------|
B|-5---3---8---8---8---10----|
G|---0---0---0---0---0----0--|
D|---------------------------|
A|-5---3---8---8---8---10----|
E|---------------------------|

Bury me in love
e|---------------------------|
B|-5---3---8---8---8---10----|
G|---0---0---0---0---0----0--|
D|---------------------------|
A|-5---3---8---8---8---10----|
E|---------------------------|

Verse 3:

What do i do, when my
e|-----------------------|
B|-7---7---5---5---------|
G|---0---0---0---0-------|
D|-----------------------|
A|-7---7---5---5---------|
E|-----------------------|

World Revolves around you, and you
e|-----------------------|
B|-7---7---5---5---------|
G|---0---0---0---0-------|
D|-----------------------|
A|-7---7---5---5---------|
E|-----------------------|

Don't know that i am alive
e|-----------------------|
B|-7---7---5---5---------|
G|---0---0---0---0-------|
D|-----------------------|
A|-7---7---5---5---------|
E|-----------------------|

e|-----------------------|
B|-3---3---5---5---------|
G|---0---0---0---0-------|
D|-----------------------|
A|-3---3---5---5---------|
E|-----------------------|

And so as i sing this tune, i
e|-----------------------|
B|-7---7---5---5---------|
G|---0---0---0---0-------|
D|-----------------------|
A|-7---7---5---5---------|
E|-----------------------|

Pray to god that someday soon you'll
e|-----------------------|
B|-7---7---5---5---------|
G|---0---0---0---0-------|
D|-----------------------|
A|-7---7---5---5---------|
E|-----------------------|

Fell the same way that i do,
e|-----------------------|
B|-7---7---5---5---------|
G|---0---0---0---0-------|
D|-----------------------|
A|-7---7---5---5---------|
E|-----------------------|

e|-----------------------|
B|-3---3---5---5---------|
G|---0---0---0---0-------|
D|-----------------------|
A|-3---3---5---5---------|
E|-----------------------|

Chorus:

Tell me who i am
e|---------------------------|
B|-5---3---8---8---8---10----|
G|---0---0---0---0---0----0--|
D|---------------------------|
A|-5---3---8---8---8---10----|
E|---------------------------|

Tell me im your man
e|---------------------------|
B|-5---3---8---8---8---10----|
G|---0---0---0---0---0----0--|
D|---------------------------|
A|-5---3---8---8---8---10----|
E|---------------------------|

Your the only girl
e|---------------------------|
B|-5---3---8---8---8---10----|
G|---0---0---0---0---0----0--|
D|---------------------------|
A|-5---3---8---8---8---10----|
E|---------------------------|

Your my only world
e|---------------------------|
B|-5---3---8---8---8---10----|
G|---0---0---0---0---0----0--|
D|---------------------------|
A|-5---3---8---8---8---10----|
E|---------------------------|

Outro: (x2)

e|---5----------------|
B|-7---7--5--5---5----|
G|---0----0----0---0--| x3
D|--------------------|
A|-7---7-----5---5----|
E|--------------------|

e|--------------------|
B|-3---3---5---5------|
G|---0---0---0---0----| x1
D|--------------------|
A|-3---3---5---5------|
E|--------------------|


I hope you enjoy the tab, it took ages to figure out and even longer to get it all down, 
i have used heaps of tabs from here so i figure'd i should put some tab in, and this 
is one of my fav songs and hadn't been done :D
Tap to rate this tab
# A B C D E F G H I J K L M N O P Q R S T U V W X Y Z