Song name
# A B C D E F G H I J K L M N O P Q R S T U V W X Y Z

Misc Unsigned Bands - Ape - She Told Me tab

Tuning:

e|---------------------------------------------------------------------------|
B|-6666555566665588-13131313121212121313131312121515-------------------------|
G|-5555555555555555-12121212121212121212121212121212-------------------------|
D|---------------------------------------------------------------------------|
A|---------------------------------------------------------------------------|
E|---------------------------------------------------------------------------|

e|---------------------------------------------------------------------------|
B|---------------------------------------------------------------------------|
G|-5-------5-----5-----------------------------------------------------------|
D|-5---7---5---3-5-----------------------------------------------------------|
A|-3---7---3---3-3-----------------------------------------------------------|
E|-----5-------1-------------------------------------------------------------|

e|-----------15--13--12--10--12p10-------------------------------------------|
B|----13---------------------------13----------------------------------------|
G|-12----12------------------------------------------------------------------|
D|---------------------------------------------------------------------------|
A|---------------------------------------------------------------------------|
E|---------------------------------------------------------------------------|

e|-----------15-13-13-13--15p13p12-------------------------------------------|
B|----13---------------------------------------------------------------------|
G|-12----12------------------------------------------------------------------|
D|---------------------------------------------------------------------------|
A|---------------------------------------------------------------------------|
E|---------------------------------------------------------------------------|

e|---------------------------------------------------------------------------|
B|---------------------------------------------------------------------------|
G|-5-------5-----5-----------------------------------------------------------|
D|-5---7---5---3-5-----------------------------------------------------------|
A|-3---7---3---3-3-----------------------------------------------------------|
E|-----5-------1-------------------------------------------------------------|

e|-----------15--13--12--10--12p10-------------------------------------------|
B|----13---------------------------13----------------------------------------|
G|-12----12------------------------------------------------------------------|
D|---------------------------------------------------------------------------|
A|---------------------------------------------------------------------------|
E|---------------------------------------------------------------------------|

e|-----------15-13-13-13--15p13p12-------------------------------------------|
B|----13---------------------------------------------------------------------|
G|-12----12------------------------------------------------------------------|
D|---------------------------------------------------------------------------|
A|---------------------------------------------------------------------------|
E|---------------------------------------------------------------------------|

e|---------------------------------------------------------------------------|
B|---------------------------------------------------------------------------|
G|---------------------------------------------------------------------------|
D|--3------5-----------------------------------------------------------------|
A|--3-(x4)-5-(x4)------------------------------------------------------------|
E|--1------3-----------------------------------------------------------------|

    pm----------
e|---------------------------------------------------------------------------|
B|---------------------------------------------------------------------------|
G|---------------------------------------------------------------------------|
D|--3------5-----------------------------------------------------------------|
A|--3-(x8)-5-(x8)------------------------------------------------------------|
E|--1------3-----------------------------------------------------------------|

e|---------------------------------------------------------------------------|
B|---------------------------------------------------------------------------|
G|-5-------5-----5-----------------------------------------------------------|
D|-5---7---5---3-5-----------------------------------------------------------|
A|-3---7---3---3-3-----------------------------------------------------------|
E|-----5-------1-------------------------------------------------------------|

e|--------------------------------------------------------------------------|
B|--------------------------------------------------------------------------|
G|--------2--5--10--12--14--17----------------------------------------------|
D|--3--5--2--5--x---x---x---x-----------------------------------------------|
A|--3--5--0--3--8---10--12--15----------------------------------------------|
E|--1--3--------------------------------------------------------------------|

e|---------------------------------------------------------------------------|
B|---------------------------------------------------------------------------|
G|----------5----------------------------------------------------------------|
D|--3---5---5----------------------------------------------------------------|
A|--3---5---3----------------------------------------------------------------|
E|--1---3--------------------------------------------------------------------|


| /  slide up
| \  slide down
| h  hammer-on
| p  pull-off
| ~  vibrato
| +  harmonic
| x  Mute note
Tap to rate this tab
# A B C D E F G H I J K L M N O P Q R S T U V W X Y Z