Song name
# A B C D E F G H I J K L M N O P Q R S T U V W X Y Z

Misc Unsigned Bands - Eternal Licks - Generation Above tab

Generation Above

tuning: c# g# c# g# c# c#

Intro:
     4x          4x          2x          2x          4x
c#---0-----| |---0-----| |---0-----| |---0-----| |---0------|
c#-----0---| |-----0---| |-----0---| |-----0---| |-----0----|
g#-0-----0-| |-0-----0-| |-0-----0-| |-0-----0-| |-0-----0--|
c#-0-------| |-2-------| |-5-------| |-7-------| |-0--------|
g#---------| |---------| |---------| |---------| |----------|
c#---------| |---------| |---------| |---------| |----------|

Verse 1:

Guitar 1:

     4x          4x          2x          2x          4x
c#---0-----| |---0-----| |---0-----| |---0-----| |---0------|
c#-----0---| |-----0---| |-----0---| |-----0---| |-----0----|
g#-0-----0-| |-0-----0-| |-0-----0-| |-0-----0-| |-0-----0--|    Play 2x
c#-0-------| |-2-------| |-5-------| |-7-------| |-0--------|
g#---------| |---------| |---------| |---------| |----------|
c#---------| |---------| |---------| |---------| |----------|

Pre-chorus: 

Guitar 1: harmonic riff

c#-5---------12-| 
c#---5---7------| 
g#-----5---7----|    Play 2x
c#--------------| 
g#--------------| 
c#--------------| 

Guitar 2:

c#-0-----0----0-|
c#-0-----0----0-|
g#-0-----0----0-|    Play 2x
c#-5-----7---12-|
g#-5-----7---12-|
c#-0-----0----0-|

Chorus:

c#-0-0-0-0-0-0-0-0-0-0-0-0-|                |-0-0-0-| 
c#-0-0-0-0-0-0-0-0-0-0-0-0-|                |-0-0-0-| 
g#-0-0-0-0-0-0-0-0-0-0-0-0-|    Play 3x     |-0-0-0-|  
c#-0-0-0-0-0-0-0-0-0-0-0-0-|   then play    |-0-0-0-|       
g#-9-9-5-5-5-5-7-7-5-5-5-5-|                |-2-2-5-|
c#-9-9-5-5-5-5-7-7-0-0-0-0-|                |-2-2-5-|


Verse 2:

Guitar 1:

     4x          4x          2x          2x          4x
c#---0-----| |---0-----| |---0-----| |---0-----| |---0------|
c#-----0---| |-----0---| |-----0---| |-----0---| |-----0----|
g#-0-----0-| |-0-----0-| |-0-----0-| |-0-----0-| |-0-----0--|    Play 2x
c#-0-------| |-2-------| |-5-------| |-7-------| |-0--------|
g#---------| |---------| |---------| |---------| |----------|
c#---------| |---------| |---------| |---------| |----------|

Pre-chorus 2: 

Guitar 1: harmonic riff

c#-5---------12-| 
c#---5---7------| 
g#-----5---7----|    Play 2x
c#--------------| 
g#--------------| 
c#--------------| 

Guitar 2:

c#-0-----0----0-|
c#-0-----0----0-|
g#-0-----0----0-|    Play 2x
c#-5-----7---12-|
g#-5-----7---12-|
c#-0-----0----0-|

Chorus:

c#-0-0-0-0-0-0-0-0-0-0-0-0-|                |-0-0-0-| 
c#-0-0-0-0-0-0-0-0-0-0-0-0-|                |-0-0-0-| 
g#-0-0-0-0-0-0-0-0-0-0-0-0-|    Play 3x     |-0-0-0-|  
c#-0-0-0-0-0-0-0-0-0-0-0-0-|   then play    |-0-0-0-|       
g#-9-9-5-5-5-5-7-7-5-5-5-5-|                |-2-2-5-|
c#-9-9-5-5-5-5-7-7-0-0-0-0-|                |-2-2-5-|

Bridge: 

Chorus:

c#-0-0-0-0-0-0-0-0-0-0-0-0-|                |-0-0-0-| 
c#-0-0-0-0-0-0-0-0-0-0-0-0-|                |-0-0-0-| 
g#-0-0-0-0-0-0-0-0-0-0-0-0-|    Play 3x     |-0-0-0-|  
c#-0-0-0-0-0-0-0-0-0-0-0-0-|   then play    |-0-0-0-|       
g#-9-9-5-5-5-5-7-7-5-5-5-5-|                |-2-2-5-|
c#-9-9-5-5-5-5-7-7-0-0-0-0-|                |-2-2-5-|

Outro:

     4x          4x          2x          2x          4x
c#---0-----| |---0-----| |---0-----| |---0-----| |---0------|
c#-----0---| |-----0---| |-----0---| |-----0---| |-----0----|
g#-0-----0-| |-0-----0-| |-0-----0-| |-0-----0-| |-0-----0--|
c#-0-------| |-2-------| |-5-------| |-7-------| |-0--------|
g#---------| |---------| |---------| |---------| |----------|
c#---------| |---------| |---------| |---------| |----------|




Tap to rate this tab
# A B C D E F G H I J K L M N O P Q R S T U V W X Y Z