Song name
# A B C D E F G H I J K L M N O P Q R S T U V W X Y Z

Misc Unsigned Bands - The Viladoors - Older Boys tab

This is pretty much it for the whole song.
This is my first tab so its not the best.

 Intro
E----------------------------------------------------------------|
B----------------------------------------------------------------|
G----------------------------------------------------------------|
D----------------------------------------------------------------|
A----------------------------------------------------------------|
E--0-----007-0007-0007-0007-0007-0007-0007-0007------------------|
(let ring)

Chorus
E----------------------------------------------------------------|
B----------------------------------------------------------------|
G----7-------7---11-11-------------------------------------------|
D--9-7--7--9-7-7-11-11-------------------------------------------|
A--9-5--7--9-5-7--9-9--------------------------------------------|
E--7----5--7---5-------------------------------------------------|
scratch strings in between


Verse
E----------------------------------------------------------------|
B----------------------------------------------------------------|
G----555-7777777-------------------------------------------------|
D-77-555-7777777-------------------------------------------------|
A-77-333-5555555-------------------------------------------------|
E-55-------------------------------------------------------------|
Tap to rate this tab
 
# A B C D E F G H I J K L M N O P Q R S T U V W X Y Z