Song name
# A B C D E F G H I J K L M N O P Q R S T U V W X Y Z

Misc Unsigned Bands - When It Dies - When It Dies tab

Help us improve GuitareTab! Take a short survey!
This song is very easy if you know how to do it.The tuning is in drop c.

Tab Legend:

brb:bendreleasebend
P.M.****:palm mute
p:pop
~:hold
x: dead

Intro:

||----------------------||
||----------------------||
||----------------------||
||-3~~~--2~~--2-2-2-----|| 3xs
||-3~~~--2~~--2-2-2-----||
||-1~~~--0~~--0-0-0-----||
              P.M.******

Main Riff:

||---------------------------------------||
||---------------------------------------||
||---------------------------------------||
||-2-2-----------2-2---------3-5---------||12xs
||-2-2------3-5--2-2------3-5---5-3------||
||-0-0---3-5-----0-0---3-5---------------||

||---------------------------------------||
||---------------------------------------||
||---------------------------------------||
||-2-2-2-2--------2-2-2-2----------------|| 2xs
||-2-2-2-2--------2-2-2-2----------------||
||-0-0-0-0--3brb--0-0-0-0--3brb----------||
  P.M.****       P.M.****


Secondary Riff:

||----------------------------||
||----------------------------||
||----------------------------|| 6xs
||-2~-2------2---2~-2------2--||
||-2~-2------2---2~-2------2--||
||-0~-0-3brb-0p--0~-0-3brb-0p-||


Bridge:

||---------------------||
||---------------------||
||---------------------||
||--2-2-2-2-3-3-3-3-2~-|| 6xs
||-0-0-0-0-0-0-0-0-0---||
||xxxxxxxxxxxxxxxxxxxxx||


Outro A:

||----------------------||
||----------------------||
||----------------------||
||-3~~~--2~~--2-2-2-----|| 6xs
||-3~~~--2~~--2-2-2-----||
||-1~~~--0~~--0-0-0-----||
              P.M.******


Outro B:

||---------------||
||---------------||
||---------------||
||--2~-2---------||
||--2~-2---------||
||--0~-0-3brb(p)-||
Related for When It Dies - When It Dies tab