Song name
# A B C D E F G H I J K L M N O P Q R S T U V W X Y Z

Misc Unsigned Bands - Die Filos - Schattentanz tab

DIE FILOS - SCHATTENTANZ
2009
Standard Tuning

Intro:
-3----------5----------|
-3----------5----------|
-4----------5----------|
-5----------7----------|
-5----------7----------|
-3----------5----------|x6

Verse
-----7------------------------7-----4-4-4-4-4-4-4-4-|
-8-8-7-----8-8------------8-8-7-----4-4-4-4-4-4-4-4-|
-----7---------7-9-10-9-7-----7-----5-5-5-5-5-5-5-5-|
------------------------------------6-6-6-6-6-6-6-6-|
------------------------------------6-6-6-6-6-6-6-6-|
------------------------------------4-4-4-4-4-4-4-4-|x2

Chorus:
-222---2---2---2---000---0---0---0---|
-333----3---3---3--000----0---0---0--|
-444-----4---4---4-111-----1---1---1-|
-444-4-------------222-2-------------|
-222---------------222---------------|
-------------------000---------------|x2

-000---0---0---0---000---0---0---0---|
-222----2---2---2--000----0---0---0--|
-222-----2---2---2-111-----1---1---1-|
-222-2-------------222-2-------------|
-000---------------222---------------|
-------------------000---------------|x2

Verse
-----7------------------------7-----4-4-4-4-4-4-4-4-|
-8-8-7-----8-8------------8-8-7-----4-4-4-4-4-4-4-4-|
-----7---------7-9-10-9-7-----7-----5-5-5-5-5-5-5-5-|
------------------------------------6-6-6-6-6-6-6-6-|
------------------------------------6-6-6-6-6-6-6-6-|
------------------------------------4-4-4-4-4-4-4-4-|x2

Chorus:
-222-22222-2-22-2-22-000-00000-0-00-0-00-|
-333-33333-3-33-3-33-000-00000-0-00-0-00-|
-444-44444-4-44-4-44-111-11111-1-11-1-11-|
-444-44444-4-44-4-44-222-22222-2-22-2-22-|
-222-22222-2-22-2-22-222-22222-2-22-2-22-|
---------------------000-00000-0-00-0-00-|x2

-000-00000-0-00-0-00-000-00000-0-00-0-00-|
-222-22222-2-22-2-22-000-00000-0-00-0-00-|
-222-22222-2-22-2-22-111-11111-1-11-1-11-|
-222-22222-2-22-2-22-222-22222-2-22-2-22-|
-000-00000-0-00-0-00-222-22222-2-22-2-22-|
---------------------000-00000-0-00-0-00-|x2

Bridge:
-3----------5----------|
-3----------5----------|
-4----------5----------|
-5----------7----------|
-5----------7----------|
-3----------5----------|x6

---7-----7-----7-----5-3-|
-8---8-7---7-5---5-3-----|
-------------------------|
-------------------------|
-------------------------|
-------------------------|
+Jam
Tap to rate this tab
# A B C D E F G H I J K L M N O P Q R S T U V W X Y Z