Song name
# A B C D E F G H I J K L M N O P Q R S T U V W X Y Z

Misc Unsigned Bands - The Record Company - Friend Of The Devil tab

  intro(rhythm) 
e--------------------------------------------------------------|
b---------------0----------------0-----------------------------|
g-------0-----0-------0--------0-------------------------------|
d----/5-----4-------2---0----0---------0-------0-------0-------|
a------------------------------------3---3---2---2---0---0-----|
E----------------------------------------------------------3---|x4

  intro(lead)

|--------------------------------------------------------------|
|--------------------------------------------------------------|
|------------------------------------------0-2-0---------------|
|-----5-----4-------2--------0-------0-1/2---------------------|
|--------------------------------------------------------------|
|--------------------------------------------------------------|

|--------------------------------------------------------------|
|-------------------1/3-3--------------------------------------|
|-------------------2/4---4p0-0------------0-2p0--0-2p0---0----|
|-----5-----4p0----------------------0-1/2-------2------0------|
|--------------------------------------------------------------|
|--------------------------------------------------------------|

|--------------------------------------------------------------|
|--------------------------------------------------------------|
|-------0-4p0---0-4/5-7--7h9p7-5-4/5-4p0-0------0-2-0----------|
|----/5-------0----------------------------0-/2----------------|
|--------------------------------------------------------------|
|--------------------------------------------------------------|

|--------------------------------------------------------------|
|--------------------------------------------------------------|
|-------0-4p0---0-4/5-7--9-7-5-5-5/4-0-------------------------|
|----/5-------0------------------------------------------------|
|--------------------------------------------------------------|
|--------------------------------------------------------------|
Tap to rate this tab
# A B C D E F G H I J K L M N O P Q R S T U V W X Y Z