Song name
# A B C D E F G H I J K L M N O P Q R S T U V W X Y Z

Misc Unsigned Bands - Desert Penguins - For Hannah tab

this is my first song so its not that good, its need time and plus it not finished
so hope you like it anyway

Hannah though i love you ye i know that it hurts
-3-3-----3----3--3---3---3--3-3----3----3--3----|
-3-3-----3----3--3---3---3--3-3----3----3--3----|
-0-0-----0----0--0---0---0--0-2----2----2--0----|
-2-2-----2----2--0---0---0--0-0----0----0--2----|
-2-2-----2----2--2---2---2--2--------------0----|
-0-0-----0----0--3---3---3--3-------------------|

If we weren't together i just know  it'd    worse
-3-3-----3----3--3-----3---3--3-3----3----3--3----|
-3-3-----3----3--3-----3---3--3-3----3----3--3----|
-0-0-----0----0--0-----0---0--0-2----2----2--0----|
-2-2-----2----2--0-----0---0--0-0----0----0--2----|
-2-2-----2----2--2-----2---2--2--------------0----|
-0-0-----0----0--3-----3---3--3-------------------|

I cannot deny that i will love you till i die
---------------------------------------------|
---------------------------------------------|
6-6--6---6--------------------------------4--|
6-6--6---6-6--6----6-6----4----4---4----4-4--|
4-4--4---4-6--6----6-6----4----4---4----4-2--|
-----------4--4----4-4----2----2---2----2----|
Tap to rate this tab
# A B C D E F G H I J K L M N O P Q R S T U V W X Y Z