Guitaretab - guitar tabs
Song name
# A B C D E F G H I J K L M N O P Q R S T U V W X Y Z

Misc Unsigned Bands - Blue Dragons - Blue Dragons tab

|-------------------------------------------------------------------|
|------------------10-10-8-7-----810--810--810--810-----------------|
|9--9--9--9--7-7-7-9--9--9--9--79---79---79---79-----9---79-9-------|
|-------------------------------------------------------------------|
|-------------------------------------------------------------------|
|-------------------------------------------------------------------|
[ Tab from: http://www.guitaretab.com/m/misc-unsigned-bands/177801.html ]
|------------------------------------------------------------------------|
|-8---8---8---8---8----9-7777107777977771077779777710--------------------|
|--9-7-7-9-7-9-7-9-7-9---------------------------------------------------|
|------------------------------------------------------------------------|
|------------------------------------------------------------------------|
|------------------------------------------------------------------------|

|-------------------57--57--57--57----7-------------|
|77779777710-7----57--57--57--57-------5-7--------3-|
|-----------------------------------------76-4-2-4-4|
|---------------------------------------------------|
|---------------------------------------------------|
|---------------------------------------------------|
Related for Blue Dragons - Blue Dragons tab
×
Blue Dragons - Blue Dragons