Song name
# A B C D E F G H I J K L M N O P Q R S T U V W X Y Z

Misc Unsigned Bands - Jim Johnston - Pain tab

Song: Pain
Artist: Jim Johnston/Vladimir Kozlov
Album: Voices: WWE The Music Volume 9

Vladimir Kozlov uses this theme, its so Heavy! i love it! here is the tab!

+ = Palm Mute



e|---------------|
B|---------------|
G|---------------|
D|3-3-3-3-4-4-1-1| X5
A|---------------|
D|---------------|

 ^ This Is When The Singer Is Talking

e|-----------------------------------------|
B|-----------------------------------------|
G|-----------------------------------------|
D|-----------------------------------------|  X4
A|------3-3--------------3-3----4-5--------|
D|0-0-0-1-1-0--0-0-0-0-0-1-1-0--2-3--------|
  + + +        + + + + +
e|-2~~~1~~~2~~~1~~~-|
B|------------------|
G|------------------|
D|------------------|
A|------------------|
D|------------------|

e|---------------|
B|---------------|
G|---------------|
D|3-3-3-3-4-4-1-1| X4
A|---------------|
D|---------------|

e|-----------------------------------------|
B|-----------------------------------------|
G|-----------------------------------------|
D|-----------------------------------------|  X4
A|------3-3--------------3-3----4-5--------|
D|0-0-0-1-1-0--0-0-0-0-0-1-1-0--2-3--------|
  + + +        + + + + +       


Thats Basically It, Just Repeat That A Few Times!
Ty For Reading!


Tap to rate this tab
 
# A B C D E F G H I J K L M N O P Q R S T U V W X Y Z