Song name
# A B C D E F G H I J K L M N O P Q R S T U V W X Y Z

Misc Unsigned Bands - Isaryce - Darkened Day tab

-----------------------------------------------------------|
-----------------------------------------------------------|
-----------------------------------------------------------|
-----------------------------------------------------------|
-3----3--3-3-3/2-2----2--2-2-2\5-5----5--5-5-5/3---2--1--0-|
-3----3--3-3-3/2-2----2--2-2-2\5-5----5--5-5-5/3---2--1--0-|

------------------------------------------------|x4|
------------------------------------------------|x4|
------------------------------------------------|x4|
----------------------------------------3-2-----|x4|
---------0-1----------0-1----------0-1--3-2-3-3-|x4|
-0-0-0-0-0-1--0-0-0-0-0-1--0-0-0-0-0-1------2-2-|x4|

---------------------------------|x4|
---------------------------------|x4|
---------------------------------|x4|
-------3-------2-------1---------|x4|
-----5-------5-------5-------5-3-|x4|
-0-3-----0-3-----0-3-----0-3-----|x4|

----------------------|x2|
----------------------|x2|
----------------------|x2|
----------------------|x2|
----------3---2---1---|x2|
-0--0h3h5---3---2---0-|x2|
Tap to rate this tab
# A B C D E F G H I J K L M N O P Q R S T U V W X Y Z