Guitaretab - guitar tabs
Song name
# A B C D E F G H I J K L M N O P Q R S T U V W X Y Z

Misc Unsigned Bands - Isaryce - Cari On tab

----|--------------------------------|x4|----------------|x2|
----|--------------------------------|x4|----------------|x2|
-0--|-0-0--0-0-0-0h1-1-1---1-1-1-1p0-|x4|-0-0-0--0-0-0-0-|x2|
-2--|-2-2--2-2-2-2---2-2---2-2-2-2---|x4|-2-2-0--2-2-0-2-|x2|
-2--|-2-2--2-2-2-2---2-2---2-2-2-2---|x4|-2-2-0--2-2-0-0-|x2|
-0--|-0-0--0-0-0-0---0-0---0-0-0-0---|x4|-0-0-0--0-0-0-0-|x2|

-------------------------------------------------------------------|x2|
-------------------------------------------------------------------|x2|
-------------------------------------------------------------------|x2|
---------------------------------------------------------------2-0-|x2|
---0-0---0-2-3-2---0-0---2-3------0-0---0-2-3-2----0-0---0h2h3-----|x2|
-0-----0---------0-----0-----3--0-----0----------0-----0-----------|x2|

-------------------------------------------------------------------|x2|
-------------------------------------------------------------------|x2|
---------------------------------------------------------------2-0-|x2|
---0-0---0-2-3-2---0-0---2-3------0-0---0-2-3-2----0-0---0h2h3-----|x2|
-0-----0---------0-----0-----3--0-----0----------0-----0-----------|x2|
-------------------------------------------------------------------|x2|

---------------------------|x2|
---------------------------|x2|
---------------------------|x2|
----------5------------3-0-|x2|
-0--0-0-3---0--0-0-0-1-----|x2|
---------------------------|x2|

-------------------|x2|
-------------------|x2|
-------------------|x2|
-0-0h3h5-3-2---2-0-|x2|
-------------3-----|x2|
-------------------|x2|

-------------------------------------------------------------------|x2|
-------------------------------------------------------------------|x2|
-------------------------------------------------------------------|x2|
---------------------------------------------------------------2-0-|x2|
---0-0---0-2-3-2---0-0---2-3------0-0---0-2-3-2----0-0---0h2h3-----|x2|
-0-----0---------0-----0-----3--0-----0----------0-----0-----------|x2|
[ Tab from: http://www.guitaretab.com/m/misc-unsigned-bands/178272.html ]
-------------------------------------------------------------------|x2|
-------------------------------------------------------------------|x2|
---------------------------------------------------------------2-0-|x2|
---0-0---0-2-3-2---0-0---2-3------0-0---0-2-3-2----0-0---0h2h3-----|x2|
-0-----0---------0-----0-----3--0-----0----------0-----0-----------|x2|
-------------------------------------------------------------------|x2|

------------------------------------------------------------------|x2|
------------------------------------------------------------------|x2|
-7-6-----7-6------7-6-----7-6-----5-4-----5-4-----5-4-----5-4-----|x2|
-----7-0-----7--0-----7-0-----7-0-----5-0-----5-0-----5-0-----5-0-|x2|
------------------------------------------------------------------|x2|
------------------------------------------------------------------|x2|

-----------------------------------|x2|
-----------------------------------|x2|
-12-11----7h9p7-------7h9p7--------|x2|
-------12-------7-5-4-------7-5-12-|x2|
-----------------------------------|x2|
-----------------------------------|x2|

-----------------------------------------|
-----------------------------------------|
-----------------------------------------|
-12-11----7h9p7-------7h9p7--------------|
-------12-------7-5-4-------7-5-7-0-1-2-3|
-----------------------------------------|

-------------------|x2|
-------------------|x2|
-------------------|x2|
-0-0h3h5-3-2---2-0-|x2|
-------------3-----|x2|
-------------------|x2|

-------------------------------------------------------------------|x2|
-------------------------------------------------------------------|x2|
-------------------------------------------------------------------|x2|
---------------------------------------------------------------2-0-|x2|
---0-0---0-2-3-2---0-0---2-3------0-0---0-2-3-2----0-0---0h2h3-----|x2|
-0-----0---------0-----0-----3--0-----0----------0-----0-----------|x2|

-------------------------------------------------------------------|x2|
-------------------------------------------------------------------|x2|
---------------------------------------------------------------2-0-|x2|
---0-0---0-2-3-2---0-0---2-3------0-0---0-2-3-2----0-0---0h2h3-----|x2|
-0-----0---------0-----0-----3--0-----0----------0-----0-----------|x2|
-------------------------------------------------------------------|x2|

-------------------------------|
-------------------------------|
-------------------------------|
-0-2-3-0-3-5-7-5-0-2-3-5-3-2-0-|
-------------------------------|
-------------------------------|
Related for Isaryce - Cari On tab
Advertisement will be closed in 10 seconds