Guitaretab - guitar tabs
Song name
# A B C D E F G H I J K L M N O P Q R S T U V W X Y Z

Misc Unsigned Bands - Britt-erik - Bamse Saga tab

-------------------------------------------------------------------------------
			     BAMSE SAGA - Britt-Erik
-------------------------------------------------------------------------------
Tabbed by: Explosive_guita 
Email: ollejons@gmail.com

Tuning: Standard
[ Tab from: http://www.guitaretab.com/m/misc-unsigned-bands/178316.html ]
         A      A7      A      A7           D      E       A     A        D
e|--------------------------------------------2---------------------------2--|
B|------2-2-----2------2-2------2------2------3-------------2------2------3--|
G|------2-2-----0------2-2------0------2----2--------1------2------2----2----|
D|-------------------2--------2------2----0----------2----2------2----0------|
A|---0-------------0---------------0---------------2----0------0-------------|
E|-----------0--------------0--------------------0---------------------------|
      E       A      A7     A     A7
e|---------------------------------------------------------------------------|
B|-----------2-2------2-----2-----2------------------------------------------|
G|------1----2-2------0-----2-----0------------------------------------------|
D|------2-----------2--------------------------------------------------------|
A|----2----0-------------0---------------------------------------------------|
E|--0-------------0------------0---------------------------------------------|

Repeat thru the song.

| /  slide up
| \  slide down
| h  hammer-on
| p  pull-off
| ~  vibrato
| +  harmonic
| x  Mute note
===============================================================================
Related for Britt-erik - Bamse Saga tab
Advertisement will be closed in 10 seconds