Song name
# A B C D E F G H I J K L M N O P Q R S T U V W X Y Z

Misc Unsigned Bands - Robdog - Breetard tab

                intro: BreeTard®™     by Robdog™


E------3333------x-x-1-1-1-1-1-1-1-1------------------------------------|
B-1-1--------1-1-x-x-1-1-1-1-1-1-1-1------------------------------------|
G------------2-2-x-x-2-2-2-2-2-2-2-2------------------------------------|X2
D-2-2--------2-2-x-x-3-3-3-3-3-3-3-3------------------------------------|
A-3-3--1111------x-x-3-3-3-3-3-3-3-3------------------------------------|
E------2222------x-x-1-1-1-1-1-1-1-1------------------------------------|

E-----------2-2--------------------------------------------------------|
B-1-1--1-1--3-3-1-1-------1-1--1-1-------------------------------------|
G-2-2--2-2--2-2-2-2-----0----0-----------------------------------------|X2
D-2-2--3-3--0-0-3-3---2----2-------------------------------------------|
A-------------------3----3---------------------------------------------|
E----------------------------------------------------------------------|

chorus: not done yet give me some time ay.
Tap to rate this tab
# A B C D E F G H I J K L M N O P Q R S T U V W X Y Z