Song name
# A B C D E F G H I J K L M N O P Q R S T U V W X Y Z

Misc Unsigned Bands - Kevin Tatarian - The Darnell Song tab

                                                                                 intro

e [-------------------------------------------------------------------------|
B [-------------------------------------------------------------------------|  All of this
G [-------------------------------------------------------------------------|        (x2)
D [----2--4-5-4-2-4-2- (x4)---7-7/9-7-5-7-(x2)----9-9/10-9-7-9---(x2)-------|
A [---2-2-------------------5--5----------------7--7------------------------|
E [--0---------------------3-------------------5----------------------------|

          Then...
e [--------------------------------------|
B [--------------------------------------|
G [--------------------------------------|
D [----2---2~~~---5~~~---7~~~---9~~~-----|
A [---2-2--2~~~---5~~~---7~~~---9~~~-----|
E [--0-----0~~~---3~~~---5~~~---7~~~-----|
Tap to rate this tab
# A B C D E F G H I J K L M N O P Q R S T U V W X Y Z