Song name
# A B C D E F G H I J K L M N O P Q R S T U V W X Y Z

Misc Unsigned Bands - Purple Aliens - Aaaah tab

                        AAAAH solo by Wake Up Call




e|--8p5-----------------------------------------------------12-15p12-15b16---|
B|-----5-8b9-9-10-12b13b12p10-12~--10-12-13-10--------12-15------------------|
G|---------------------------------------------12b13-------------------------|
D|---------------------------------------------------------------------------|
A|---------------------------------------------------------------------------|
E|---------------------------------------------------------------------------|

e|---15h17p15-15h19p15-15h17p15----------------------------------------------|
B|-------------------------------17b18--15-17-18-----------------------------|
G|-----------------------------------------------15-17-18-17p15--------------|
D|--------------------------------------------------------------17~----------|
A|---------------------------------------------------------------------------|
E|---------------------------------------------------------------------------|

e|---------------------------------------------------------------------------|
B|---------------------------------------------------------------------------|
G|---------------------------------------15-17p15-15~------------------------|
D|---17p15-------------------------15-17-------------------------------------|
A|---------17p15-------------15-17-------------------------------------------|
E|---------------18p15-18b19-------------------------------------------------|
Tap to rate this tab
# A B C D E F G H I J K L M N O P Q R S T U V W X Y Z