Song name
# A B C D E F G H I J K L M N O P Q R S T U V W X Y Z

Misc Unsigned Bands - War - Black Hawks tab

e|----------------------------------------------------------------------------|
b|----------------------------------------------------------------------------|
g|--------12-14---------------------------------------------------------------|
d|--12-14---------------------------------------------------------------------|
a|-12---13--------------------------------------------------------------------|
e|----------------------------------------------------------------------------|

repeat above twice

e|--------------------------------------------------------------------------------|
b|--------------------------------------------------------------------------------|
g|--------------------------------------------------------------------------------|
d|--12-14-------------------------------------------------------------------------|
a|-12---13------------------------------------------------------------------------|
e|--------12-14vvvvvvvvv----------------------------------------------------------|

e|------------------------------------------|
b|------------------------------------------|
g|-9b-9-7vvv-----------7vvv-9--------7vvvv--|
d|----------9-7vvv-7h9-------7-9p7h9--------|
a|------------------------------------------|
e|------------------------------------------|
Tap to rate this tab
 
# A B C D E F G H I J K L M N O P Q R S T U V W X Y Z