Song name
# A B C D E F G H I J K L M N O P Q R S T U V W X Y Z

Misc Unsigned Bands - Pep Band - The Hey Song tab

Help us improve GuitareTab! Take a short survey!
----------------------------------------------------------------------------
			     Hey Song - Misc.
----------------------------------------------------------------------------
Tabbed by:Will Rhyne
Email:wmrhyne@carolina.rr.com

Tuning:Standard

Guitar 1:

e|--------------------------------------------------------------------------|
B|----------------------------------------------1-1-0----------1-1----------|
G|-0-2-3--3-2-2-0---0-2-3--3-2-2-0--0-2-3--3-2-2------0-0-0-0-0---3-----0-0-|
D|-----------------------------------------------------------------3-3-3----|
A|--------------------------------------------------------------------------|
E|--------------------------------------------------------------------------|

e|---------------------------1-1-3------------------------------------------|
B|-1-1---------1-1----------1-----------------------------------------------|
G|----3-----0-0---3------0-0------------------------------------------------|
D|-----3-3-3--------3-3-3---------------------------------------------------|
A|--------------------------------------------------------------------------|
E|--------------------------------------------------------------------------|

| /  slide up
| \  slide down
| h  hammer-on
| p  pull-off
| ~  vibrato
| +  harmonic
| x  Mute note
============================================================================
Related for Pep Band - The Hey Song tab