Song name
# A B C D E F G H I J K L M N O P Q R S T U V W X Y Z

Misc Unsigned Bands - Lee Smith - I Dont Know tab

I was bored so i wrote this and i kinda think its a success. please review


x= Palm Mute

    e minor key
E----------------------------------------------------------------------------|
C----------------------------------------------------------------------------|
G--12-x-x-12-x-x-12-x-x-12-x-x-11-x-x-11-x-x-11-x-x-11-x-x-5-x-x-5-x-x-5-x-x-|
D--14-x-x-14-x-x-14-x-x-14-x-x-12-x-x-12-x-x-12-x-x-12-x-x-7-x-x-7-x-x-7-x-x-|
A--14-x-x-14-x-x-14-x-x-14-x-x-12-x-x-12-x-x-12-x-x-12-x-x-7-x-x-7-x-x-7-x-x-|
E--0--x-x-0--x-x-0--x-x-0--x-x-0--x-x-0--x-x-0--x-x-0--x-x-0-x-x-0-x-x-0-x-x-|


Right here i intended to have a pause while the other guitarist did a riff


E-------------------------------- -----2-0- -------------------------------|
C-------------------------------- ----1--1- -------------------------------|
G--5-x-x-0-x-x-0-x-x-0-x-x-0-x-x- -0-2---2- -------------------------------|
D--7-x-x-2-x-x-2-x-x-2-x-x-2-x-x- -2-----2- -------------------------------|
A--7-x-x-2-x-x-2-x-x-2-x-x-2-x-x- -2-----0- -------------------------------|
E--0-x-x-0-x-x-0-x-x-0-x-x-0-x-x- -0------- -------------------------------|
                                            that i havent thought of yet

a minor key                       2x
E------------------------------------|
C------------------------------------|
G----------------------------------2-|
D----------0h2h3-0h2----------0h2h3--|
A-0--0-0-0----------3--2-0h2h3-------|
E------------------------------------|


E------------0-|
C------------1-|
G-0h2--------2-|
D----2-------2-|
A-------0h2--0-|
E----------3---|

Dont have an ending, If you think of a good one put it in a review
Tap to rate this tab
# A B C D E F G H I J K L M N O P Q R S T U V W X Y Z