Song name
# A B C D E F G H I J K L M N O P Q R S T U V W X Y Z

Misc Unsigned Bands - Float Face Down - Another Victim tab

-----------------------------------------------------------------------------
			     Another Victim- Float Face Down
Tabbed by: Rich
Email: godofthunder98@aol.com

Tuning: drop Bb

e|---------------------------------------------------------------------------|
B|---------------------------------------------------------------------------|
G|---------------------------------------------------------------------------|
D|-----888-----888------777------777-----------------------------------------|
A|-5--------5--------4-------4-----------------------------------------------|
E|-5--------5--------4-------4-----------------------------------------------|

e|---------------------------------------------------------------------------|
B|---------------------------------------------------------------------------|
G|---------------------------------------------------------------------------|
D|-----888-----888------777------777-----888------888------------------------|
A|-5--------5--------4-------4--------5-------5------------------------------|
E|-5--------5--------4-------4--------5-------5------------------------------|


e|----------------------------5--8--12--8--5----------------------------------|
B|-----------------------6---------------------6------------------------------|
G|-----------------7-----------------------------7----------------------------|
D|------------7--------------------------------------7------------------------|
A|---5---8-----------------------------------------------8--------------------|
E|----------------------------------------------------------------------------|

e|------------------------------------10--13--10--------------9--12-9--------|
B|-------------------------------11-----------------------10-----------10----|
G|---------------------------12-----------------------11---------------------|
D|-----------------------12-----------------------11-------------------------|
A|------5----8---5-----------------------------------------------------------|
E|--00----0----0-------------------------------------------------------------|

e|--------------------------13--12--10--12--10--9--10--9---------------------|
B|---------------------------------------------------------------------------|
G|---------------------------------------------------------------------------|
D|---------------------------------------------------------------------------|
A|-----5----8---5------------------------------------------------------------|
E|--00---0----0--------------------------------------------------------------|

e|------------------------------------10--13--10--------------9--12-9--------|
B|-------------------------------11-----------------------10-----------10----|
G|---------------------------12-----------------------11---------------------|
D|-----------------------12-----------------------11-------------------------|
A|------5----8---5-----------------------------------------------------------|
E|--00----0----0-------------------------------------------------------------|

e|----------------------13-^-12-^-10-^-12-^-10-^-9-^-10-^-9------------------|
B|-------------------------------------------------------------11-^-10-------|
G|---------------------------------------------------------------------------|
D|---------------------------------------------------------------------------|
A|-----5----8---5------------------------------------------------------------|
E|--00---0----0--------------------------------------------------------------|

For last one play this riff instead of the one above.
e|----13-12-10-12-10-9-10-9--------------------------------------------------|
B|----------------------------11-10-11-10----10------------------------------|
G|----------------------------------------12-----12--10--9--10--9------------|
D|-----------------------------------------------------------------12--11----|
A|---------------------------------------------------------------------------|
E|---------------------------------------------------------------------------|


e|---------------------------------------------------------------------------|
B|---------------------------------------------------------------------------|
G|---------------------------------------------------------------------------|
D|---------------------------------------------------------------------------|
A|---------------------------------------------------------------------------|
E|-000--000--000--000-00000000000000-----------------------------------------|

Youll suffer....
e|----------------------------------------------------------------------------|
B|----------------------------------------------------------------------------|
G|----------------------------------------------------------------------------|
D|----------------------------------------------------------------------------|
A|--000-000--000--000----00--000-000-----000000---0-0-------------------------|
E|--000-000--000--000----00--000-000-----000000---1-1-------------------------|

last one only
e|---------------------------------------------------------------------------|
B|---------------------------------------------------------------------------|
G|---------------------------------------------------------------------------|
D|---------------------------------------------------------------------------|
A|--4-------1----------------------------------------------------------------|
E|--4-------1----------------------------------------------------------------|


e|---------------------------------------------------------------------------|
B|---------------------------------------------------------------------------|
G|---------------------------------------------------------------------------|
D|---------------------------------------------------------------------------|
A|-0--000--000--000--000-000--000--000--4-444--444-444-1-111-111-111---------|
E|-0--000--000--000--000-000--000--000--4-444--444-444-1-111-111-111---------|

e|---------------------------------------------------------------------------|
B|---------------------------------------------------------------------------|
G|---------------------------------------------------------------------------|
D|---------------------------------------------------------------------------|
A|---------------------------------------------------------------------------|
E|---------------------------------------------------------------------------|

| /  slide up
| \  slide down
| v  hammer-on
| ^  pull-off
| ~  vibrato
| +  harmonic
| x  Mute note
===============================================================================
Tap to rate this tab
 
# A B C D E F G H I J K L M N O P Q R S T U V W X Y Z