Song name
# A B C D E F G H I J K L M N O P Q R S T U V W X Y Z

Misc Unsigned Bands - Tim And Eric - Sports tab

Tim and Eric - Sports

keytar 1 and 2
e|-x-10-x-10-10--------------------x-10-x-10-10------------------|
B|-x-10-x-10-10--------------------x-10-x-10-10------------------|
G|---------------------------------------------------------------|
D|---------------------------------------------------------------|
A|---------------------------------------------------------------|
E|---------------------------------------------------------------|

keytar 1 (tim) main riff
e|---------------------------------------------------------------------------|
B|-----------------------12-14-15----------------------------12--------------|
G|----------11--11-12-14---------------------11--11-12-14-14----14-12-11-----|
D|12--12-14-----------------------12--12--12----------------------------14---|
A|---------------------------------------------------------------------------|
E|---------------------------------------------------------------------------|

keytar2 (eric) main riff
e|------------------10-10-12-14-----------------------10-10----10-9----------|
B|---------10-10-12--------------------------10-10-12-------12------12-10----|
G|11-11-12-----------------------11-11-11-12---------------------------------|
D|---------------------------------------------------------------------------|
A|---------------------------------------------------------------------------|
E|---------------------------------------------------------------------------|

keytar 1 solo
e|------------------------------------------------------------------------17~-|
B|----------------------------------------------------------------------------|
G|-6h7h9/11-9h11h12/14-12h14h16/17-16h17h19/21-19-22p21p19\17-21p19p17\16-----|
D|----------------------------------------------------------------------------|
A|----------------------------------------------------------------------------|
E|----------------------------------------------------------------------------|

keytar 1 main riff and keytar 2 main riff

keytar 2 solo
e|-8~-5----------------------------------------------------------------------|
B|------8b10-8p5---5---------------------------------------------------------|
G|---------------7---7p5-7p5-------5---7p5---------5---7b9-5p7---------------|
D|---------------------------7-5h7---7-----7---5h7---7---------7-------------|
A|---------------------------------------------------------------------------|
E|---------------------------------------------------------------------------|

e|-------------------------8---------10b12-----------------------------------|
B|-----------8-10p8---8h10---10p8h10-----------------------------------------|
G|-----5h7/9--------9--------------------------------------------------------|
D|-5h7-----------------------------------------------------------------------|
A|---------------------------------------------------------------------------|
E|---------------------------------------------------------------------------|

drum solo

both keytars do main riff up until helmet touch

lyrics:

sports

sports

sports

sports

sports

sports

sports

sports

sports

ahhh! (throwing up noises)

tabbed by the adrian
Tap to rate this tab
 
# A B C D E F G H I J K L M N O P Q R S T U V W X Y Z