Song name
# A B C D E F G H I J K L M N O P Q R S T U V W X Y Z

Misc Unsigned Bands - Accidental Love Affair - Forsaken Sunshine tab

Hello, My name is Issac, and I like writing music. I am starting a band, and this is one 
my first song that I have written. Hope you like it.

|--------3---2---------------------------3---2---------------------|
|----3-----3---3-----3-----3-----3---3-----3---3-----3-----3-------|
|------2---------0-----0-----0---------2---------0-----0-----0---0-|
|--0-------------------------------0-------------------------------|
|------------------3-----2-------------------------3-----2---------|
|------------------------------3-------------------------------3---|

|----0-----0---------------3---------------------|
|------3-----3---3-----3-----3---3---3-----3-----|
|--------0-----0-----0---0-----0-------0-----0---|
|------------------------------------------------|
|--3---------------2---------------3-----2-------|
|----------------------------------------------3-|
Tap to rate this tab
 
# A B C D E F G H I J K L M N O P Q R S T U V W X Y Z