Song name
# A B C D E F G H I J K L M N O P Q R S T U V W X Y Z

Misc Unsigned Bands - 13 Steps - Havent Decided tab

(----------------------------------------)
(------------7-----------------7---------)
(--------7-----7---7-------7-----7---7---)
(------9---9-----9-------9---9-----9-----)
(---10----------------10-----------------)
(----------------------------------------)

(----------------------------------------)
(-----------7---------------7------------)
(-------7-----7---7-----7-----7---7------)
(-----9---9-----9-----9---9-----9--------)
(---9---------------9--------------------)
(----------------------------------------)
repeat once
Tap to rate this tab
# A B C D E F G H I J K L M N O P Q R S T U V W X Y Z