Guitaretab - guitar tabs
Song name
# A B C D E F G H I J K L M N O P Q R S T U V W X Y Z

Misc Unsigned Bands - Rampage - Andrew tab

------------------|  ------------------------|---------3--5--10--12--13h15|
------------------|  ------------------------|-----2----------------------|
------------------|  ------------------------|--2-------------------------|
------3-----------|x2-----333---2---3---2---3|----------------------------|
----3--3-4-3------|  ---------2---3---2---3--|----------------------------|
--3----------3-2-1|  -333--------------------|----------------------------|
[ Tab from: http://www.guitaretab.com/m/misc-unsigned-bands/178711.html ]
-15----------|---------------------------------|----------------------19/21|
----------12^|--14h16--16----------------------|------------16h18--19------|
-----13------|------------------------9^--10/12|-15h18--18-----------------|
-------------|-------------8h10--10------------|---------------------------|
-------------|---------------------------------|---------------------------|
-------------|---------------------------------|---------------------------|

This is my first tab. Its short and easy to do. It is like a small blues riff. ENJOY!
Related for Rampage - Andrew tab
Advertisement will be closed in 10 seconds