Song name
# A B C D E F G H I J K L M N O P Q R S T U V W X Y Z

Misc Unsigned Bands - Stranger X - Insomnia tab

Tuning, low to high: D, G, C, F, A, d

Intro
d[-----------8------------------7------------------8---------]
A[---------9---9--------------8---8--------------9---9-------]
F[------10-------10---------9-------9---------10-------10----]
C[---10-------------10----9-----------9----10-------------10-]
G[-8--------------------7----------------8-------------------]
D[-----------------------------------------------------------]

Verse 1
d[---------7----------------5----------------3-------|
A[-----7-----7----------5-----6----------3-----3-----|
F[---8---8-----8------6---6-----6------4---4-----4---|
C[-9-------------9--7-------------7--5-------------5-|
G[---------------------------------------------------|
D[---------------------------------------------------|

d[---------1-------]
A[-----1-----1-----]
F[---2---2-----2---]
C[-3-------------3-]
G[-----------------]
D[-----------------]

Chorus
d[-2--3--1--5--3--1--5--2-]
A[-2--3--1--5--3--1--5--2-]
F[-2--3--1--5--3--1--5--2-]
C[-4--5--3--7--5--3--7--4-]
G[------------------------]
D[------------------------]

Verse 2 (Supposed to be second guitar, but you dont have to have two guitars)
d[-1-x-]
A[-1-m-]
F[-1-u-]
C[-3-t-]
G[-3-e-]
D[-1-x-] repeatr until end of verse

Chorus
d[-2--3--1--5--3--1--5--2-]
A[-2--3--1--5--3--1--5--2-]
F[-2--3--1--5--3--1--5--2-]
C[-4--5--3--7--5--3--7--4-]
G[------------------------]
D[------------------------]

Bridge/Solo
d[-----------------------------------------07870787870----------------]
A[---------------------------------07870787-----------870-------------]
F[-------------------------07870787----------------------870----------]
C[-----------------07870787---------------------------------870-------]
G[---------07870787--------------------------------------------870----]
D[-07870787-------------------------------------------------------870-]

d[---------------------0787---0-7-8-7-0-7-8-7-]
A[-----------------0787-------0-7-8-7-0-7-8-7-]
F[-------------0787-----------0-7-8-7-0-7-8-7-]
C[---------0787---------------0-7-8-7-0-7-8-7-]
G[-----0787-------------------0-7-8-7-0-7-8-7-]
D[-0787-----------------------0-7-8-7-0-7-8-7-]

Verse 1 (again)
d[---------7----------------5----------------3-------|
A[-----7-----7----------5-----6----------3-----3-----|
F[---8---8-----8------6---6-----6------4---4-----4---|
C[-9-------------9--7-------------7--5-------------5-|
G[---------------------------------------------------|
D[---------------------------------------------------|

d[---------1-------]
A[-----1-----1-----]
F[---2---2-----2---]
C[-3-------------3-]
G[-----------------]
D[-----------------]

Chorus
d[-2--3--1--5--3--1--5--2-]
A[-2--3--1--5--3--1--5--2-]
F[-2--3--1--5--3--1--5--2-]
C[-4--5--3--7--5--3--7--4-]
G[------------------------]
D[------------------------]

Outro
d[---------4----------------5-----------------4--------8--]
A[-------5---5------------6---6-------------5---5------9--]
F[-----6-------6--------7-------7---------6-------6----10-]
C[---6-----------6----7-----------7-----6-----------6--10-]
G[-4----------------5-----------------4----------------8--]
D[--------------------------------------------------------]
Tap to rate this tab
 
# A B C D E F G H I J K L M N O P Q R S T U V W X Y Z