Song name
# A B C D E F G H I J K L M N O P Q R S T U V W X Y Z

Misc Unsigned Bands - Pathway To Providence - All I Know tab

I can't really tab the rhythem but here are the chords in tabulature

e|-X----X----X----X----X----X-----X--|
B|-7----8----3----7----8----12----10-|
G|-0----0----0----0----0----0-----0--|
D|-X----X----X----X----X----X-----X--|
A|-7----7----3----7----7----11----9--|
E|-X----X----X----X----X----X-----X--|

and the picking part after it

e|-------0----------0-------------0-----|
B|---3----3-3---3----3-3------3----3-3~-|
G|--0-0----0---0-0----0----0-0-0----0---|
D|--------------------------------------|
A|-3------------------------------------|
E|--------------------------------------|

Heres a video of me playing it
http://www.youtube.com/watch?v=qX5nnEuSx-Q
(my guitars in C# but the song is played in E standard)


contact me on youtube or myspace
Myspace.com/xXxRyanCoombesxXx
http://www.youtube.com/user/RyanRedemption
Tap to rate this tab
# A B C D E F G H I J K L M N O P Q R S T U V W X Y Z