Song name
# A B C D E F G H I J K L M N O P Q R S T U V W X Y Z

Misc Unsigned Bands - The Nodules - Stung tab

guitar 1
(clean with with slight echo)

E|-0778-077---0778-------0778--07875-078---------------|
B|---------87-----78h7p5-----8----------78h7p8h7p8h7p5-|
G|-----------------------------------------------------|
D|-----------------------------------------------------|
A|-----------------------------------------------------|
E|-----------------------------------------------------|

E|-0778-077---0778-------0778--07875-078---------------|
B|---------87-----78h7p5-----8----------78h7p8h7p8h7p5-|
G|-----------------------------------------------------|
D|-----------------------------------------------------|
A|-----------------------------------------------------|
E|-----------------------------------------------------|

Guitar 2
E|-----------------------------------------------------------------------|
B|-----------------------------------------------------------------------|
G|-----------------------------------------------------------------------|
D|-----------------------------------------------------------------------|
A|2-5p0-3-0---------3-5-7-xxx-0---xxx-2-5p0-3-0---------3-5-7-xxx-0---xxx|
E|0---------3-0-3-5-----0-xxx-2---xxx0----------3-0-3-5-----0-xxx-2---xxx|
Tap to rate this tab
# A B C D E F G H I J K L M N O P Q R S T U V W X Y Z