Song name
# A B C D E F G H I J K L M N O P Q R S T U V W X Y Z

Misc Unsigned Bands - Alexi Hagert - Acoustic Improvisation tab

  G                                Em
----------3------------------------------3---------------3-----------|
----3---------3-----3---------------3--------3-----3---------3-------|
------0-----0---0-----0-----0---0-----0----0---0-----0-----0---0-----|
--------0---------------0---------------2--------------2-------------|
---------------------------------------------------------------------|
--3---------------3-------3---2---0--------------0-------------------|

  C               D
----------3---------------2h3-------------3-------3-----------|
----3---------3-----3-----------3---3---------3---3-----------|
------0-----0---0-----2-------2-------0-----0---0-0-----------|
--------2---------0-----0---------------0---------0-----------|
--3-----------------------------------------------2-----------|
----------------------------------3---------------3-----------|
Tap to rate this tab
 
# A B C D E F G H I J K L M N O P Q R S T U V W X Y Z