Song name
# A B C D E F G H I J K L M N O P Q R S T U V W X Y Z

Misc Unsigned Bands - Chuckie - Cassies Song tab

The first of many tabs soon to come from CHUCKIE!


e|-------------------------------------------------------------------------|
 |-------------------------------------------------------------------------|
 |-------------------------------------------------------------------------|
 |11-1111-1111-9--9-9--9-9--7--7-7--7-7--12-1212-1212--11-1111-1111-9--9-9-|
 |0--0-0--0-0--0--0-0--0-0--0--0-0--0-0--0--0-0--0-0---0--0-0--0-0--0--0-0-|
E|-------------------------------------------------------------------------|

e|--------------------|
 |--------------------|
 |--------------------| Repeat
 |-9-9--777777777~~~~-|   x2
 |-0-0--000000000~~~~-|
E|--------------------|

e|----------------------------------|
 |----13--1313--13-----10--1010--10-|
 |1414--14----14---1212--12----12---| Repeat
 |----------------------------------|   x2
 |----------------------------------|
E|----------------------------------|

e|-------------------------------------------------------------------------|
 |-------------------------------------------------------------------------|
 |-------------------------------------------------------------------------|
 |11-1111-1111-9--9-9--9-9--7--7-7--7-7--12-1212-1212--11-1111-1111-9--9-9-|
 |0--0-0--0-0--0--0-0--0-0--0--0-0--0-0--0--0-0--0-0---0--0-0--0-0--0--0-0-|
E|-------------------------------------------------------------------------|

e|--Slow-down-as-you--|
 |--get-closer-to-the-|
 |-------end----------| 
 |-9-9--777777777~~~~-|
 |-0-0--000000000~~~~-|
E|--------------------|

http://artists.ultimate-guitar.com/chuckie/
Tap to rate this tab
# A B C D E F G H I J K L M N O P Q R S T U V W X Y Z