Song name
# A B C D E F G H I J K L M N O P Q R S T U V W X Y Z

Misc Unsigned Bands - Die Filos - Fernsehen tab

DIE FILOS - FERNSEHEN
2009
Standard tuning

Intro:
-------------------------------------------------|
-------------------------------------------------|
-2~~~-----------------2~~~-------2/9~~~7-7h8p7---|
-----------------------------------------------8-|
-------------------------------------------------|
-------------------------------------------------|

Verse:
-------------------------------------------------|
-------------------------------------------------|
-------------------------------------------------|
-7-8------------------8-7------------------------|
-7-8------------------8-7------------------------|
-5-6------------------6-5------------------------|

-------------------------------------------------|
-------------------------------------------------|
-------------------------------------------------|
-7-8------------------8-7------------------------|
-7-8------------------8-7------------------------|
-5-6------------------6-5------------------------|

Interlude 1:
-------------------------------------------------|
-------------------------------------------------|
-2---3--2---5---3---2h3p3-2--3--2/9~~~-7-7h8p7---|
-----------------------------------------------8-|
-------------------------------------------------|
-------------------------------------------------|

Verse:
-------------------------------------------------|
-------------------------------------------------|
-------------------------------------------------|
-7-8------------------8-7------------------------|
-7-8------------------8-7------------------------|
-5-6------------------6-5------------------------|

-------------------------------------------------|
-------------------------------------------------|
-------------------------------------------------|
-7-8------------------8-7------------------------|
-7-8------------------8-7------------------------|
-5-6------------------6-5------------------------|

Bridge:
---------------------------------------------------------|
---------------------------------------------------------|
-6-66-7-6-xxxx-6-66-7-6-xxxx-6-66-7-6-xxxx-6-66-7-6-xxxx-|
-7-77-8-7-xxxx-7-77-8-7-xxxx-7-77-8-7-xxxx-7-77-8-7-xxxx-|
-7-77-8-7-xxxx-7-77-8-7-xxxx-7-77-8-7-xxxx-7-77-8-7-xxxx-|
-5-55-6-5-xxxx-5-55-6-5-xxxx-5-55-6-5-xxxx-5-55-6-5-xxxx-|

Chorus:
-------------------------------------------------|
-------------------------------------------------|
-------------------------------------------------|
-7-7-8-7-5-5-7-7-8-7-5-5-7-7-8-7-5-5-7-7-8-7-5-5-|
-7-7-8-7-5-5-7-7-8-7-5-5-7-7-8-7-5-5-7-7-8-7-5-5-|
-5-5-6-5-3-3-5-5-6-5-3-3-5-5-6-5-3-3-5-5-6-5-3-3-|
PM:      . .         . .         . .         . .

-------------------------------------------------|
-------------------------------------------------|
-------------------------------------------------|
-7-7-8-7-5-5-7-7-8-7-5-5-7-7-8-7-5-5-7-7-8-7-5-5-|
-7-7-8-7-5-5-7-7-8-7-5-5-7-7-8-7-5-5-7-7-8-7-5-5-|
-5-5-6-5-3-3-5-5-6-5-3-3-5-5-6-5-3-3-5-5-6-5-3-3-|
PM:      . .         . .         . .         . .

Interlude 2:
---------------------------------------------|
---------------------------------------------|
-2---2---3---2---0h2p0---2---2---3---5---3-2-|
---0---0---0---0-------0---0---0---0---0-----|
---------------------------------------------|
---------------------------------------------|

---------------------------------------------|
---------------------------------------------|
-2---2---3---2---0h2p0---2---2---3---5---3-2-|
---0---0---0---0-------0---0---0---0---0-----|
---------------------------------------------|
---------------------------------------------|

Verse:
-------------------------------------------------|
-------------------------------------------------|
-------------------------------------------------|
-7-8------------------8-7------------------------|
-7-8------------------8-7------------------------|
-5-6------------------6-5------------------------|

-------------------------------------------------|
-------------------------------------------------|
-------------------------------------------------|
-7-8------------------8-7------------------------|
-7-8------------------8-7------------------------|
-5-6------------------6-5------------------------|

Interlude 3:
-------------------------------------------------|
-------------------------------------------------|
-2---3--2---5---3---2h3p3-2--3--2/9~~~-7-7h8p7---|
-----------------------------------------------8-|
-------------------------------------------------|
-------------------------------------------------|

-------------------------------------------------------------|
----------------------------------------------------14/15/14-|
----------------------------------------------14-12----------|
----11h12p12----14-12-11h12p12----11h12p12-------------------|
-12----------12----------------12----------12----------------|
-------------------------------------------------------------|

-----------------------------------------------15-15-15-15-|
-----------------------------------------------15-15-15-15-|
-----------------------------------------------------------|
----11h12p12----14-12-11h12p12----11h12p12-----------------|
-12----------12----------------12----------12--------------|
-----------------------------------------------------------|

Bridge:
---------------------------------------------------------|
---------------------------------------------------------|
-6-66-7-6-xxxx-6-66-7-6-xxxx-6-66-7-6-xxxx-6-66-7-6-xxxx-|
-7-77-8-7-xxxx-7-77-8-7-xxxx-7-77-8-7-xxxx-7-77-8-7-xxxx-|
-7-77-8-7-xxxx-7-77-8-7-xxxx-7-77-8-7-xxxx-7-77-8-7-xxxx-|
-5-55-6-5-xxxx-5-55-6-5-xxxx-5-55-6-5-xxxx-5-55-6-5-xxxx-|

Chorus:
-------------------------------------------------|
-------------------------------------------------|
-------------------------------------------------|
-7-7-8-7-5-5-7-7-8-7-5-5-7-7-8-7-5-5-7-7-8-7-5-5-|
-7-7-8-7-5-5-7-7-8-7-5-5-7-7-8-7-5-5-7-7-8-7-5-5-|
-5-5-6-5-3-3-5-5-6-5-3-3-5-5-6-5-3-3-5-5-6-5-3-3-|
PM:      . .         . .         . .         . .

-------------------------------------------------|
-------------------------------------------------|
-------------------------------------------------|
-7-7-8-7-5-5-7-7-8-7-5-5-7-7-8-7-5-5-7-7-8-7-5-5-|
-7-7-8-7-5-5-7-7-8-7-5-5-7-7-8-7-5-5-7-7-8-7-5-5-|
-5-5-6-5-3-3-5-5-6-5-3-3-5-5-6-5-3-3-5-5-6-5-3-3-|
PM:      . .         . .         . .         . .

Solo:
------------------------------------------|
----------17------------------------------|
-14p13-13----14~~-14h16-16/17/16-14-------|
------------------------------------16-14-|
------------------------------------------|
------------------------------------------|

------------------------------------------|
----------17------------------------------|
-14p13-13----14~~-14h16-16b17r16----------|
---------------------------------14~~~----|
------------------------------------------|
------------------------------------------|

-------------------------------------------------|
-------------------------------------------------|
-------------------------------------------------|
-7-----------------------------------------------|
-7-----------------------------------------------|
-5-----------------------------------------------|

Interlude 4:
-----------------------------------------------------------------|
-----------------------------------------------------------------|
-----------------------------------------------------------------|
-7---7---6---6---9---9---7---7---7---7---6---6---2---2---4---4---|
---0---0---0---0---0---0---0---0---0---0---0---0---0---0---0---0-|
-----------------------------------------------------------------|

-----------------------------------------------------------------|
-----------------------------------------------------------------|
-----------------------------------------------------------------|
-7---7---6---6---9---9---7---7---7---7---6---6---2---2---4---4---|
---0---0---0---0---0---0---0---0---0---0---0---0---0---0---0---0-|
-----------------------------------------------------------------|

-----------------------------------------------------------------|
-----------------------------------------------------------------|
-----------------------------------------------------------------|
-7---7---6---6---9---9---11--11--7---7---6---6---2---2---0---0---|
---0---0---0---0---0---0---0---0---0---0---0---0---0---0---0---0-|
-----------------------------------------------------------------|

-----------------------------------------------------------------|
-----------------------------------------------------------------|
-----------------------------------------------------------------|
-7---7---6---6---9---9---11--11--7---7---6---6---4---4---2---2---|
---0---0---0---0---0---0---0---0---0---0---0---0---0---0---0---0-|
-----------------------------------------------------------------|

-----------------------------------------------------------------|
-----------------------------------------------------------------|
-----------------------------------------------------------------|
-2///7-7~~~------------------------------------------------------|
-0-----0~~~------------------------------------------------------|
-----------------------------------------------------------------|

Chorusx4
Tap to rate this tab
# A B C D E F G H I J K L M N O P Q R S T U V W X Y Z