Song name
# A B C D E F G H I J K L M N O P Q R S T U V W X Y Z

Misc Unsigned Bands - Declan Henry - Still I Try tab

Standard Tuning - E A D G B e

This is something i wrote, feel free to pick and choose and add to your own songs. Made
acoustic as a heads up, but if you add in some vibration on the strings and crank up the
it works too. i personally prefer to use the tabs for the intro and the chords for the 
I've put out the tabs for the chords at the bottom and the lyrics beneath them.


INTRO:

    A7    C5  G5    D         A7   C5  G5   D
e --------------------3---------------------3-------------------|
B ----1--------------2---------1------------2-------------------|
G ---2-----0--------3---------2-----0-------3-------------------|
D --2-----2-----0------------2-----2-----0----------------------|
A -------3-----2------------------3-----2-----------------------|
E ------------3------------------------3------------------------|


VERSE:

    A7 A7 A7 A7   C5 C5 C5 C5   G5 G5 G5 G5   D  D  D  D
e --------------------------------------------------------------|
B --------------------------------------------------------------|
G --------------------------------------------------------------|
D --2--2--2--2--------------------------------0--0--0--0--------|
A ----------------3--3--3--3------------------------------------|
E ------------------------------3--3--3--3----------------------| X2

    A7 A7 A7 A7   C5 C5 C5 C5   G5 G5 G5 G5   D
e --------------------------------------------------------------|
B --------------------------------------------------------------|
G --------------------------------------------------------------|
D --2--2--2--2--------------------------------0-----------------|
A ----------------3--3--3--3------------------------------------|
E ------------------------------3--3--3--3----------------------|


CHORUS:

    A7 A7 A7 A7     E  E  E  E    G5 G5 G5 G5   D  D  D  D
e --------------------------------------------------------------|
B --------------------------------------------------------------|
G --------------------------------------------------------------|
D --2--2--2--2----------------------------------0--0--0--0------|
A ------------------2--2--2--2----------------------------------|
E --------------------------------3--3--3--3--------------------| X3


BRIDGE:

     D  D  D    A7 A7 A7   C5 C5 C5   G
e  -------------------------------------------------------------|
B  -------------------------------------------------------------|
G  -------------------------------------------------------------|
D  --0--0--0----2--2--2-----------------------------------------|
A  ------------------------3--3--3------------------------------|
E  -----------------------------------3-------------------------|


OUTRO:

     A7 A7 A7 A7   E  E  E  E    G5 G5 G5 G5   D  D  D  D5 D  G5
e  -------------------------------------------------------------|
B  -------------------------------------------------------------|
G  -------------------------------------------------------------|
D  --2--2--2--2--------------------------------0--0--0--2--0----|
A  ----------------2--2--2--2-----------------------------------|
E  ------------------------------3--3--3--3-------------------3-|


ORDER:

Intro
Chorus
Verse
Chorus
Verse
Chorus
Outro

CHORDS:

    A7   C5   G5   D    E    D5

e  -0----3----3----2---------3------|
B  -1----3----3----3----0----3------|
G  -2----0----0----2----0----2------|
D  -2----2----0----0----2----0------|
A  -0----3----2---------2-----------|
E  -----------3---------0-----------|


Chorus:

Looked at her
Looked at me
Knew right then
Not to be

Still I tried
What a fool
Messed it up
Blew my cool


Verse 1:

She was hot,
She was cool,
Now i need her,
Home with me.

I screwed up,
Yes i know,
I hit an,
All time low.


Verse 2:

She hates me,
I love her,
I stare on,
To a glare

She wants him,
I want her,
Always knew,
She wouldn't care.
Tap to rate this tab
# A B C D E F G H I J K L M N O P Q R S T U V W X Y Z