Song name
# A B C D E F G H I J K L M N O P Q R S T U V W X Y Z

Misc Unsigned Bands - Dead But Sweet - Sunshine tab

Dead But Sweet-Sunshine:
intro & verse 1

e|----------------------------------| 
B|----------------------------------|
G|----------------------------------|
D|------88---1010---6---------------|
A|-66---66---88-----4---------------|
E|-44-------------------------------|

e|----------------------------------| 
B|----------------------------------|
G|----------------------------------|
D|------88---1010---6---------------|
A|-66---66---88-----4---------------|
E|-44-------------------------------|


e|----------------------------------| 
B|----------------------------------|
G|----------------------------------|
D|------88---1010---6---------------|
A|-66---66---88-----4---------------|
E|-44-------------------------------|


e|----------------------------------| 
B|----------------------------------|
G|----------------------------------|
D|------88---1010---6---------------|
A|-66---66---88-----4---------------|
E|-44-------------------------------|

e|----------------------------------| 
B|----------------------------------|
G|----------------------------------|
D|------88---1010---6---------------|
A|-66---66---88-----4---------------|
E|-44-------------------------------|

e|----------------------------------| 
B|----------------------------------|
G|----------------------------------|
D|------88---1010---6---------------|
A|-66---66---88-----4---------------|
E|-44-------------------------------|

Tap to rate this tab
 
# A B C D E F G H I J K L M N O P Q R S T U V W X Y Z