Song name
# A B C D E F G H I J K L M N O P Q R S T U V W X Y Z

Misc Unsigned Bands - Purple Aliens - Monkeys tab

                    

                           Purple Aliens-Monkeys   

This is a great song! I hope you think the tab is cowbell. (that means good)


e|---------------------------------------------------------------------------|
B|---------------------------------------------------------------------------|
G|---------------------------------------------------------------------------|
D|---------------------------------------------------------------------------|
A|--12\----------------------------------------------------------------------|
D|--12\----------------------------------------------------------------------|
  Verse                                                               x8
e|---------------------------------------------------------------------------|
B|---------------------------------------------------------------------------|
G|---------------------------------------------------------------------------|
D|---------------------------------------------------------------------------|
A|---0-12-0-10-0-12-12-12----------------------------------------------------|
D|---0-12-0-10-0-12-12-12----------------------------------------------------|
  Chorus                                                                    
e|---------------------------------------------------------------------------|
B|---------------------------------------------------------------------------|
G|---------------------------------------------------------------------------|
D|---------------------------------------------------------------------------|
A|--0-0-0-0-8-8-8-8-7-7-7-7-5-5-5-5---5-5-5-5---5----------------------------|
D|--0-0-0-0-8-8-8-8-7-7-7-7-5-5-5-5---5-5-5-5---5----------------------------|

e|---------------------------------------------------------------------------|
B|---------------------------------------------------------------------------|
G|---------------------------------------------------------------------------|
D|---------------------------------------------------------------------------|
A|--0-0-0-0-8-8-8-8-7-7-7-7-10-----------------------------------------------|
D|--0-0-0-0-8-8-8-8-7-7-7-7-10-----------------------------------------------|

     Verse
     Chorus
  
  Bridge                                                            x4

e|---------------------------------------------------------------------------|
B|---------------------------------------------------------------------------|
G|---------------------------------------------------------------------------|
D|---------------------------------------------------------------------------|
A|--0-7-8-10-8-7-0-7-8-10-8-7-0-7-8-10-8-7-7--5-5--3-3--3-3------------------|
D|--0-7-8-10-8-7-0-7-8-10-8-7-0-7-8-10-8-7-7--5-5--3-3--3-3------------------|
   Verse
   Chorus

  Outro
e|---------------------------------------------------------------------------|
B|---------------------------------------------------------------------------|
G|---------------------------------------------------------------------------|
D|---------------------------------------------------------------------------|
A|-10-10-10-12---------------------------------------------------------------|
D|-10-10-10-12---------------------------------------------------------------|

    HAVE FUN! COWBELL!!!!!!
Tap to rate this tab
# A B C D E F G H I J K L M N O P Q R S T U V W X Y Z