Song name
# A B C D E F G H I J K L M N O P Q R S T U V W X Y Z

Misc Unsigned Bands - Rampage - Route 3 tab

E|--------|-------------------------|---------------------------------|
B|--------|-------------------------|-------------------10------------|
G|----5---|-------------------------|----------------10----11-12-14-15|
D|-1--3--4|--------3535---------4646|-----9~~~-8h10-------------------|
A|-1-----5|3333333-3535-4444444-4646|-7~~~----------------------------|
E|--------|3333333------4444444-----|---------------------------------|
          Play This Part Really Fast    This is more of a slow part

E|-----------------|-------------------|-----------------------------------|
B|-----------------|-------------------|-----------------------------------|
G|-----------------|-------------------|--------10-------11-------10-----11|
D|-----------------|-5/7--6-4---4---4--|--8-8-8----8-8-8----8-8-8----888---|
A|--0-6-0-7-0-6-0-7|-3p0------6---6---6|-----------------------------------|
E|-----------------|-------------------|-----------------------------------|
                    '                  '
             This is the hardest part of the song

E|---------|-------------------------|5-5h7--------------|-----------------|
B|---------|-------------------------|------5-5-7-7-7-7/8|-----------------|
G|-9-9h12-9|-------------------------|-------------------|--------5-6-5-4-3|
D|---------|--------3535---------4646|-------------------|1-5-3-7-5-6-5-4-3|
A|---------|3333333-3535-4444444-4646|-------------------|1-5-3-7----------|
E|---------|3333333------4444444-----|-------------------|-----------------|
              Also, Play this fast

E|---------|-------------------------------|-------------|
B|---------|-------------------------------|-------------|
G|---------|-------------------------------|-------------|
D|5-7-6-5-4|1-3-1-5-1-7-1-9-1-12~-9-7-5-3-1|1-3-1-3-1-3-1|
A|3-5-4-3-2|1-3-1-5-1-7-1-9-1-12~-9-7-5-3-1|1-3-1-3-1-3-1|
E|---------|-------------------------------|-------------|

The middle of the outro is te most annoying part because of the sliding up and down the 
neck.
Tap to rate this tab
# A B C D E F G H I J K L M N O P Q R S T U V W X Y Z