Song name
# A B C D E F G H I J K L M N O P Q R S T U V W X Y Z

Misc Unsigned Bands - Traditional Music - Yankee Doodle tab

E|-------------0------0--------------------------------|--------------0---1|
B|-1---1---3------1------1------1---1---3---1---1---0--|---1---1---3-------|
G|-----------------------------------------------------|-------------------|
D|-----------------------------------------------------|-------------------|
A|-----------------------------------------------------|-------------------|
E|-----------------------------------------------------|-------------------|
 Yan-kee Doo-dle went to town  rid-ing  on  a   po-ny    stuck a fea-ther in

E|---0---------------------------------------------------------------------|
B|-------3---1---0------------0---0---1------------------------------------|
G|--------------------0---2------------------------------------------------|
D|-------------------------------------------------------------------------|
A|-------------------------------------------------------------------------|
E|-------------------------------------------------------------------------|
   his hat and called it   ma-ce-ro-ni
Tap to rate this tab
# A B C D E F G H I J K L M N O P Q R S T U V W X Y Z