Song name
# A B C D E F G H I J K L M N O P Q R S T U V W X Y Z

Misc Unsigned Bands - My Addiction - Work This Out tab

WORK THIS OUT - My Addiction

Lead: Louis (Standard tuning, EADGBE)
Rythmn: Toby (Drop D Tuning, DADGBE)

Rythmn: (Basically the whole song really)
e|---------------------------------------------------------------------------|
B|---------------------------------------------------------------------------|
G|-----(11)----(11)----------------------------------9-9---------------------|
D|-----(11)----(11)--------9-9-9-----9-9-----9---9---9-9---------------------|
A|-9-9-9---9-9-9---9-9-9-9-9-9-9-9-9-9-9-9-9-9-9-9-9-7-7---------------------|
D|-9-9-9---9-9-9---9-9-0-0-0-0-0-7-7-7-7-7-7-7-7-7-7-------------------------|

Lead: (Intro & Chorus)
e|-----------------------2--------|
B|---3h5-5-3h5-3h5-5-3h5---5p3----|
G|-----------------------------4--|
D|--------------------------------|
A|--------------------------------|
E|--------------------------------|

(Repeat three times, on fourth play this riff instead)

e|---------------------|
B|-------3b--------3b--|
G|---2h4----4--2h4-----|
D|---------------------|
A|---------------------|
E|---------------------|

im not sure on how to play the solo yet but i will post it once ive found out. Enjoy ;)

Tap to rate this tab
# A B C D E F G H I J K L M N O P Q R S T U V W X Y Z