Song name
# A B C D E F G H I J K L M N O P Q R S T U V W X Y Z

Misc Unsigned Bands - Annonimoz - Chasing Stars tab

Help us improve GuitareTab! Take a short survey!
-------------------------------------------------------------------------------
			     Chasing Stars - Annonimoz (Dario Bamford)
-------------------------------------------------------------------------------
Tabbed by: Annonimoz
Email: Dariobamford@hotmail.co.uk

Tuning: Standard
This is a simple version not showing how many times its strummed, but yh :)   here you are ;)


Intro:
e|-0------0------0------0--------------0------0------0------0------0-------|
b|-0------0------0------0--------------0------0------0------0------0-------|
g|-9------7------2------4--------------2------4------2------4------5-------|
d|-9------7------2------4--------------2------4------2------4------5-------|
a|-7------5------0------2--------------0------2------0------2------3-------|
e|-0-----------------------------------------------------------------------| 
                            x2

Verse:
e|-0------0------0------0-|
b|-0------0------0------0-|
g|-6------9------4------2-|
d|-6------9------4------2-|
a|-4------7------2------0-|
e|--------0---------------|
                             x2

Chorus:
e|-0------0------0------0------0------0-------|
b|-0------0------0------0------0------0-------|
g|-1------8------9------6------7------6-------|
d|-2------9-----11------7------7------6-------|
a|-2------9-----11------7------5------4-------|
e|-0------7------9------5---------------------|
                          x2           x2
   

Verse
=====

Chorus:
e|-0------0------0------0------0------0-------|
b|-0------0------0------0------0------0-------|
g|-1------8------9------6------7------6-------|
d|-2------9-----11------7------7------6-------|
a|-2------9-----11------7------5------4-------|
e|-0------7------9------5---------------------|
                          x2           x4

Instrumental:
e|-0------0------0------0------0------0------0------0-------0-|
b|-0------0------0------0------0------0------0------0-------0-|
g|-2------1------1------5------4------5------7------8-------9-|
d|-2------2------3------5------4------5------7------8-------9-|
a|-0------2------3------3------2------3------5------6-------7-|
e|--------0------1--------------------------------------------|
                                 x2

Intro
===

Chorus:
e|-0------0------0------0-|
b|-0------0------0------0-|
g|-1------8------9------6-|
d|-2------9-----11------7-|
a|-2------9-----11------7-|
e|-0------7------9------5-|
                             x3

e|---------0------------------0----------------------0--------------0-|
b|-----------0------------------0----------------------0------------0-|
g|-----1--------1---------8--------8-----------9-----------9--------6-|
d|-------2----2-------------9----9---------------11-----11----------7-|
a|---2-------------------9------------------11----------------------7-|
e|-0-------------------7------------------9-------------------------5-|
                  x2                 x2                      x2

===============================================================================
Related for Annonimoz - Chasing Stars tab