Song name
# A B C D E F G H I J K L M N O P Q R S T U V W X Y Z

Misc Unsigned Bands - Blind My Soul - My Revenge tab

Artist: Blind My Soul
Song: My Revenge

Tuning:Drop C


e|-----------------------------------------------------------------|
B|-----------------------------------------------------------------|
G|-----------------------------------------------------------------|
C|x-x---x-x---1----------x-x---x-x-1--3--2-------------------------| X2
G|x-x---x-x---1----------x-x---x-x-1--3--2-------------------------|
C|x-x---x-x---1----------x-x---x-x-1--3--2-------------------------|

e|-----------------------------------------------------------------------------|
B|-----------------------------------------------------------------------------|
G|-----------------------------------------------------------------------------|
C|xxxxxxxx-1-------------xxxxxxxx-1--3--2--------------------------------------| X2
G|xxxxxxxx-1-------------xxxxxxxx-1--3--2--------------------------------------|
C|xxxxxxxx-1-------------xxxxxxxx-1--3--2--------------------------------------|
                                                                           e|--|
B|-----------------------------------------------------------------------------|
G|-----------------------------------------------------------------------------|
C|xxxxxxxx-11111111-xxxxxxxx-111-333-22----------------------------------------|
G|xxxxxxxx-11111111-xxxxxxxx-111-333-22----------------------------------------|
C|xxxxxxxx-11111111-xxxxxxxx-111-333-22----------------------------------------|

e|-----------------------------------------------------------------|
B|-----------------------------------------------------------------|
G|-----------------------------------------------------------------|
C|xxxxxxxx-11111111-xxxxxxxx--1-3-2---1-3-2---1-3-2----------------|
G|xxxxxxxx-11111111-xxxxxxxx--1-3-2---1-3-2---1-3-2----------------|
C|xxxxxxxx-11111111-xxxxxxxx--1-3-2---1-3-2---1-3-2----------------|

Chorus
e|-----------------------------------------------------------------|
B|-----------------------------------------------------------------|
G|-----------------------------------------------------------------|
C|xx--x-000--xx--x-0/6--------xx--x-000--xx-x-0-1-3----------------|
G|xx--x-000--xx--x-0/6--------xx--x-000--xx-x-0-1-3----------------|
C|xx--x-000--xx--x-0/6--------xx--x-000--xx-x-0-1-3----------------|

e|-----------------------------------------------------------------|
B|-----------------------------------------------------------------|
G|-----------------------------------------------------------------|
C|xx--x-000--xx--x-0/6--------xx--x-000--xx-x-0-3-2----------------|
G|xx--x-000--xx--x-0/6--------xx--x-000--xx-x-0-3-2----------------|
C|xx--x-000--xx--x-0/6--------xx--x-000--xx-x-0-3-2----------------|

e|-----------------------------------------------------------------|
B|-----------------------------------------------------------------|
G|-----------------------------------------------------------------|
C|xx--x-000--xx--x-0/6--------xx--x-000--xx-x-0-1-3----------------|
G|xx--x-000--xx--x-0/6--------xx--x-000--xx-x-0-1-3----------------|
C|xx--x-000--xx--x-0/6--------xx--x-000--xx-x-0-1-3----------------|

e|-----------------------------------------------------------------|
B|-----------------------------------------------------------------|
G|-----------------------------------------------------------------|
C|xx--x-000--xx--x-0/6--------xx--x-000--xx-x-0-3-2~---------------|
G|xx--x-000--xx--x-0/6--------xx--x-000--xx-x-0-3-2~---------------|
C|xx--x-000--xx--x-0/6--------xx--x-000--xx-x-0-3-2~---------------|

End Chorus
e|-----------------------------------------------------------------|
B|-----------------------------------------------------------------|
G|-----------------------------------------------------------------|
C|xxxxxxxx-1-------------xxxxxxxx-1--3--2--------------------------| X2
G|xxxxxxxx-1-------------xxxxxxxx-1--3--2--------------------------|
C|xxxxxxxx-1-------------xxxxxxxx-1--3--2--------------------------|

e|-----------------------------------------------------------------|
B|-----------------------------------------------------------------|
G|-----------------------------------------------------------------|
C|xxxxxxxx-11111111-xxxxxxxx-111-333-22----------------------------| X3
G|xxxxxxxx-11111111-xxxxxxxx-111-333-22----------------------------|
C|xxxxxxxx-11111111-xxxxxxxx-111-333-22----------------------------|

e|-----------------------------------------------------------------|
B|-----------------------------------------------------------------|
G|-----------------------------------------------------------------|
C|xxxxxxxx-11111111-xxxxxxxx--1-3-2---1-3-2---1-3-2~---------------|
G|xxxxxxxx-11111111-xxxxxxxx--1-3-2---1-3-2---1-3-2~---------------|
C|xxxxxxxx-11111111-xxxxxxxx--1-3-2---1-3-2---1-3-2~---------------|

Chorus
e|-----------------------------------------------------------------|
B|-----------------------------------------------------------------|
G|-----------------------------------------------------------------|
C|xx--x-000--xx--x-0/6--------xx--x-000--xx-x-0-1-3----------------|
G|xx--x-000--xx--x-0/6--------xx--x-000--xx-x-0-1-3----------------|
C|xx--x-000--xx--x-0/6--------xx--x-000--xx-x-0-1-3----------------|

e|-----------------------------------------------------------------|
B|-----------------------------------------------------------------|
G|-----------------------------------------------------------------|
C|xx--x-000--xx--x-0/6--------xx--x-000--xx-x-0-3-2----------------|
G|xx--x-000--xx--x-0/6--------xx--x-000--xx-x-0-3-2----------------|
C|xx--x-000--xx--x-0/6--------xx--x-000--xx-x-0-3-2----------------|

e|-----------------------------------------------------------------|
B|-----------------------------------------------------------------|
G|-----------------------------------------------------------------|
C|xx--x-000--xx--x-0/6--------xx--x-000--xx-x-0-1-3----------------|
G|xx--x-000--xx--x-0/6--------xx--x-000--xx-x-0-1-3----------------|
C|xx--x-000--xx--x-0/6--------xx--x-000--xx-x-0-1-3----------------|

e|-----------------------------------------------------------------|
B|-----------------------------------------------------------------|
G|-----------------------------------------------------------------|
C|xx--x-000--xx--x-0/6--------xx--x-000--xx-x-0-3-2~---------------|
G|xx--x-000--xx--x-0/6--------xx--x-000--xx-x-0-3-2~---------------|
C|xx--x-000--xx--x-0/6--------xx--x-000--xx-x-0-3-2~---------------|

End Chorus
e|-----------------------------------------------------------------|
B|-----------------------------------------------------------------|
G|-----------------------------------------------------------------|
C|0~-0-3-2------0~-0-3-2-5-4---------------------------------------| X4
G|0~-0-3-2------0~-0-3-2-5-4---------------------------------------|
C|0~-0-3-2------0~-0-3-2-5-4---------------------------------------|

e|-----------------------------------------------------------------|
B|-----------------------------------------------------------------|
G|-----------------------------------------------------------------|
C|0--0-0-0-0-0-0--3-2-2-2-2-2-2-2-0--0-0-0-0-0-0-3-2-2-5-4-4-4-4---|X3
G|0--0-0-0-0-0-0--3-2-2-2-2-2-2-2-0--0-0-0-0-0-0-3-2-2-5-4-4-4-4---|
C|0--0-0-0-0-0-0--3-2-2-2-2-2-2-2-0--0-0-0-0-0-0-3-2-2-5-4-4-4-4---|

e|-----------------------------------------------------------------|
B|-----------------------------------------------------------------|
G|-----------------------------------------------------------------|
C|0--0-0-0-0-0-0--3-2-2-2-2-2-2-2-0--0-0-0-0-0-0-3-2-2-5-4-4-4-4-0-|
G|0--0-0-0-0-0-0--3-2-2-2-2-2-2-2-0--0-0-0-0-0-0-3-2-2-5-4-4-4-4-0-|
C|0--0-0-0-0-0-0--3-2-2-2-2-2-2-2-0--0-0-0-0-0-0-3-2-2-5-4-4-4-4-0-|

e|-----------------------------------------------------------------|
B|-----------------------------------------------------------------|
G|-----------------------------------------------------------------|
C|0-0-0-0-0-0-0-0-0-0-0-0-0-0-0-0----------------------------------|
G|-----------------------------------------------------------------|
C|-----------------------------------------------------------------|

e|-----------------------------------------------------------------|
B|-----------------------------------------------------------------|
G|-----------------------------------------------------------------|
C|xxxxxxxx-1-------------xxxxxxxx-1--3--2--------------------------| X2
G|xxxxxxxx-1-------------xxxxxxxx-1--3--2--------------------------|
C|xxxxxxxx-1-------------xxxxxxxx-1--3--2--------------------------|

e|-----------------------------------------------------------------|
B|-----------------------------------------------------------------|
G|-----------------------------------------------------------------|
C|xxxx-0000-xxxx-1111-xxxx-0000-1--3--2----------------------------| X3
G|xxxx-0000-xxxx-1111-xxxx-0000-1--3--2----------------------------|
C|xxxx-0000-xxxx-1111-xxxx-0000-1--3--2----------------------------|

e|-----------------------------------------------------------------|
B|-----------------------------------------------------------------|
G|-----------------------------------------------------------------|
C|xxxx-0000-xxxx-1111-xxxx-0000-1--3--2---1--3--2---1--3--2---1-00-|
G|xxxx-0000-xxxx-1111-xxxx-0000-1--3--2---1--3--2---1--3--2---1-00-|
C|xxxx-0000-xxxx-1111-xxxx-0000-1--3--2---1--3--2---1--3--2---1-00-|
Tap to rate this tab
# A B C D E F G H I J K L M N O P Q R S T U V W X Y Z