Song name
# A B C D E F G H I J K L M N O P Q R S T U V W X Y Z

Misc Unsigned Bands - Fact 2 - Blue Nights tab

Help us improve GuitareTab! Take a short survey!
tuning:standard 




intro
e--------------------------------------------------------------------|
b-3-------3-------3-------3-------3------3-------3-----3-------------|
g---4-------4-------4-------4-------4------4------4------4-----------|
d-----4-------4-------4-------4-------4------4------4------4---------|
a-------2-------2-------2-------2-------0------0------0------0-------|
E--------------------------------------------------------------------|\
                                                                       x2
e--------------------------------------------------------------------|/
b---------3-------3--------3-------3-------3-------3---3-------------|
g-------4-------4--------4-------4-------4-------4-----4-------------|
d-----4-------4--------4-------4-------4-------4-------4-------------|
a--------------------0-------0-------2-------2---------2-------------|
E--3--------3--------------------------------------------------------|
  
e--------------------------------------------------------------------|
b-3-------3-------3-------3-------3------3-------3-----3-------------|
g---4-------4-------4-------4-------4------4------4------4-----------|
d-----4-------4-------4-------4-------4------4------4------4---------|
a-------2-------2-------2-------2-------0------0------0------0-------|
E--------------------------------------------------------------------|


e--------------------------------------------------------------------|
b---------3-------3--------3-------3-------3-------3-------3-------3-|
g-------4-------4--------4-------4-------4-------4-------4-------4---|
d-----4-------4--------4-------4-------4-------4-------4-------4-----|x4
a--------------------0-------0-------2-------2-------2-------2-------|
E--3--------3--------------------------------------------------------|


e--------------------------------------------------------------------|
b---------3-------3--------3-------3-------3-------3-------3---------|
g-------4-------4--------4-------4-------4-------4-------4-----------|
d-----4-------4--------4-------4-------4-------4-------4-------------|
a--------------------0-------2-------2-------2-------2---------------|
E--3--------0--------------------------------------------------------|

e----------------------------------------|
b---------3-------3--------3-------3-----|
g-------4-------4--------4-------4-------|
d-----4-------4--------4-------4---------|x8
a-----------0--------2-------2-----------|
E--3-------------------------------------|

this part is with drive
e---------------------------------------------------------------------|
b---------------------------------------------------------------------|
g---------------------------------------------------------------------|
d---------------------------------------------------------------------|
a----0-2--5--7--9\-3---5--7--9\-3-------------------------------------|
E--3------3--5--7-\1---3--5--7-\1-------------------------------------|


e---------------------------------------------------------------------|
b---------------------------------------------------------------------|
g----------------------------7----------------------------------------|
d--------7---------------7-9--9-7--------7----------------------------|
a-5-7-9-9-9-8-7---5-7-9-9---------5-7-9-9--9-8-7--5-7-9-9-7-5---------|
E-3-5-7---------9-3-5-7-----------3-5-7---------9-3-5-7-------7-5-3---|


e---------------------------------------------------------------------|
b-----------------------------------------------------------------7*--|
g----------------------------7------------------------------79797-7*--|
d--------7---------------7-9--9-7--------7---------------7-9------7*--|
a-5-7-9-9-9-8-7---5-7-9-9---------5-7-9-9--9-8-7--5-7-9-9-------------|
E-3-5-7---------9-3-5-7-----------3-5-7---------9-3-5-7---------------|




e---------------------------------------------------------------------|
b-9\2-----------------------------------------------------------------|
g-9\2-quick-----------------------------------------------------------|
d-9\2----4-4-4-44-4-4-4-44--4-4-4-44--4-4-4-44------------------------|x8 
a--------2-2-2-20-2-2-2-20--2-2-2-20--2-2-2-20------------------------|exept
E---------------------------0-0-0-00--0-0-0-00------------------------| the slide at the begining
Related for Fact 2 - Blue Nights tab