Song name
# A B C D E F G H I J K L M N O P Q R S T U V W X Y Z

Misc Unsigned Bands - Saski - 34 Jam tab

“34 Jam” by Saski
Tuning: Standard

Rhythm Guitar, Intro/ Verse:
e|--------------------------------------------------------------------|
B|--------------------------------------------------------------------|
G|--------------------------------------------------------------------|
D|-----------3--3-3/8888888888888888-----------3--3-3/8888888888888888|
A|--3--3-3---3--3-3/8888888888888888---3--3-3--3--3-3/8888888888888888|
E|00000000h11111111/6666666666666666\0000000011111111/6666666666666666|
^^3 Times^^
Rhythm Guitar, Mid-Verse break:
e|--------------------------------------------------------------------|
B|--------------------------------------------------------------------|
G|----------------22222225555555--------------------------------------|
D|-3333333--------00000002222222-88888888888888888888888-8888h10—12\--|
A|-33333333333333----------------88888888888888888888888--------------|
E|-11111110000000----------------66666666666666666666666--------------|

Lead Guitar, Mid-Verse break:
e|-11111110000000--------0000000-11111111111111111111111111111111-----|
B|----------------3333333---------------------------------------------|
G|--------------------------------------------------------------------|
D|--------------------------------------------------------------------|
A|--------------------------------------------------------------------|
E|--------------------------------------------------------------------|

Rhythm Guitar, Verse Continued:
e|--------------------------------------------------------------------|
B|--------------------------------------------------------------------|
G|--------------------------------------------------------------------|
D|--------------------------------------------------------------------|
A|-333--3-33--888--8-88--333--3-33—-888-8-88--------------------------|
E|-000--1-11--666--6-66--000--1-11—-666-6-66--------------------------|

e|--------------------------------------------------------------------|
B|--------------------------------------------------------------------|
G|--------------------------------------------------------------------|
D|--------------------------------------------------------------------|
A|-333--3-33--888--8-88--333--3-33--88888888888888--------------------|
E|-000--1-11--666--6-66--000--1-11--66666666666666--------------------|

Lead Guitar, Verse Continued:
e|--------------------------------------------------------------------|
B|--------------------------------------------------------------------|
G|-555--5-55-------------555--5-55—-----------------------------------|
D|-222--3-33—-333--3-33--222--3-33—-333-3-33/8-8-8-8h10-12\-----------|
A|------------111--1-11-------------111-1-11--------------------------|
E|--------------------------------------------------------------------|

e|--------------------------------------------------------------------|
B|--------------------------------------------------------------------|
G|-555--5-55-----------555--5-55—-------------------------------------|
D|-222--3-33—-333-3—33-222--3-33--3333333333333333--------------------|
A|------------111-1-11------------1111111111111111--------------------|
E|--------------------------------------------------------------------|

Rhythm Guitar, Chorus:
e|--------------------------------------------------------------------|
B|--------------------------------------------------------------------|
G|-----------------------------------7777777-55555555-3333333333333333|
D|-3333333-33333333-8888888888888888-7777777-55555555-3333333333333333|
A|-3333333-33333333-8888888888888888-5555555-33333333-1111111111111111|
E|-1111111-00000000-6666666666666666----------------------------------|
^^2 Times^^
Lead Guitar, Chorus:
e|--------------------------------------------------------------------|
B|--------------------------------------------------------------------|
G|5555555-55555555----------------------------------------------------|
D|3333333-22222222-3333333333333333-77777777-5555555-33333333888881010|
A|-----------------1111111111111111-55555555-3333333-11111111---------|
E|--------------------------------------------------------------------|

e|--------------------------------------------------------------------|
B|--------------------------------------------------------------------|
G|5555555-55555555----------------------------------------------------|
D|3333333-22222222-3333333333333333-77777777-5555555-3333333333333333-|
A|-----------------1111111111111111-55555555-3333333-1111111111111111-|
E|--------------------------------------------------------------------|

Rhythm Guitar, Bridge:
e|--------------------------------------------------------------------|
B|--------------------------------------------------------------------|
G|--------------------------------------------------------------------|
D|-xxxx33--xxxx33--xxxx33--xxxx33--xxxx33--xxxx33--xxxx33—-xxxx33-----|
A|-xxxx--33xxxx--33xxxx--33xxxx—-33xxxx--33xxxx--33xxxx--33xxxx--33---|
E|-xxxx----xxxx----xxxx----xxxx----xxxx----xxxx----xxxx----xxxx-------|
^^2 times^^
Lead Guitar, Bridge (this part isn’t 100%):
e|13---13---13---10---10-8--8--8--6--6--8---8--6--6--6-8--8--6--6--6--|
B|-1111-1111-1111-1111----66-66-66-66----66--66-66-66---66-66-66-66---|
G|--------------------------------------------------------------------|
D|--------------------------------------------------------------------|
A|--------------------------------------------------------------------|
E|--------------------------------------------------------------------|
^^2 Times^^
Play verse through once, then play chorus through twice

Outro, Rhythm Guitar:
e|--------------------------------------------------------------------|
B|--------------------------------------------------------------------|
G|--------------------------------------------------------------------|
D|--------------------------------------------------------------------|
A|-3333333-3333333-88888888888888--3333333-3333333-8-8-8-8-8-xx-8-----|
E|-0000000-1111111-66666666666666--0000000-1111111-6-6-6-6-8-xx-6-----|

Outro, Lead Guitar:
e|-5555555-3333333-5555555/6666666-5555555-3333333-1------------------|
B|--------------------------------------------------------------------|
G|--------------------------------------------------------------------|
D|--------------------------------------------------------------------|
A|--------------------------------------------------------------------|
E|--------------------------------------------------------------------|

Tap to rate this tab
 
# A B C D E F G H I J K L M N O P Q R S T U V W X Y Z