Song name
# A B C D E F G H I J K L M N O P Q R S T U V W X Y Z

Misc Unsigned Bands - Perennial Faith - Vana tab

Help us improve GuitareTab! Take a short survey!
-------------------------------------------------------------------------------
			     VANA - Perennial Faith
-------------------------------------------------------------------------------
Tabbed by: DAN THA MAN
Email: metalbu94@yahoo.co.nz

Tuning: standard

Alternate picking, but on the part where you repeat hitting the strings (chugging away), 
just down pick. eg. at the end of 1st riff and the whole 2nd riff.
At the end of riff 2 you do a little Gene Simmons, (slide while letting it ring down 
up the fret board to the start of the next riff)
The start is a solo that isn't able to be written down because its just tapping on the 
a specific way with a ring.

riff 1
e|---------------------------|
B|---------------------------|
G|---------------------------|
D|---------------------------|
A|---------------------------|
E|-2-2-5-5-5-5-3-3-2-2-2-2-2-|x4

riff 2
e|---------------------------------------------|
B|---------------------------------------------|
G|---------------------------------------------|
D|---------------------------------------------|
A|---------------------------------------------|
E|-2-2-2-2-2-2-2-2-5-5-5-5-5-5-5-5-7-7-7-7-7-7-|x1

riff 1                           extention to riff 1
e|---------------------------|  |-------|
B|---------------------------|  |-------|
G|---------------------------|  |-------|
D|---------------------------|  |-------|
A|---------------------------|  |-------|
E|-2-2-5-5-5-5-3-3-2-2-2-2-2-|x2|2--2--2|x1

e|-----------------------------------------|
B|-----------------------------------------|
G|-----------------------------------------|
D|-----------------------------------------|
A|-----------------------------------------|
E|-0-12-10-0-12-10-10-0-12-10-7-7-7-7-8-8-9|x2

riff 1 (this one is verse 1)
e|---------------------------|
B|---------------------------|
G|---------------------------|
D|---------------------------|
A|---------------------------|
E|-2-2-5-5-5-5-3-3-2-2-2-2-2-|x4

riff 2
e|---------------------------------------------|
B|---------------------------------------------|
G|---------------------------------------------|
D|---------------------------------------------|
A|---------------------------------------------|
E|-2-2-2-2-2-2-2-2-5-5-5-5-5-5-5-5-7-7-7-7-7-7-|x1

riff 1                           extention to riff 1
e|---------------------------|  |-------|
B|---------------------------|  |-------|
G|---------------------------|  |-------|
D|---------------------------|  |-------|
A|---------------------------|  |-------|
E|-2-2-5-5-5-5-3-3-2-2-2-2-2-|x2|2--2--2|x1

e|-----------------------------------------|
B|-----------------------------------------|
G|-----------------------------------------|
D|-----------------------------------------|
A|-----------------------------------------|
E|-0-12-10-0-12-10-10-0-12-10-7-7-7-7-8-8-9|x2
Related for Perennial Faith - Vana tab