Song name
# A B C D E F G H I J K L M N O P Q R S T U V W X Y Z

Misc Unsigned Bands - Fact 8 - Burst tab

tuning:stadard 

Artist:Fact 8
Song:burst
stage intro 

key:
b:bend-fb:full bend
.:palm mute
/:slide up
\:slide down
~:vabrato
h:hamer on
p:pull off
t:tap


e--7b-9b-7------------------------------|
b----------9-8-7---7b-------------------|
g----------------9----9-8-7---7~~-------|
d---------------------------9-----9\----|good into to song
a---------------------------------------|
E---------------------------------------|

e----------------------------------------------------------------------|
b----------------------------------------------------------------------|
g--2-------------------------------------------------------------------|
d--0h3p0h3p0h30h3p0h3p0h30h3p0h3p0h30h3p0h3p0h30h3p0h3p0h30h3p0h3p0h3p-|
a----------------------------------------------------------------------|
E----------------------------------------------------------------------|

e----------------------------------------------------------------------|
b----------------------------------------------------------------------|
g----------------------------------------------------------------------|
d------ph3p0h30h3p0h3p0h30h3p0h3p0h30h3p0h3p0h30h3p0h3p0h30h3p0h3p0h3--|
a----------------------------------------------------------------------|
E----------------------------------------------------------------------|

e----------------------------------------------------------------------|
b----------------------------------------------------------------------|
g-------------------2---------3~~--------------------------------------|
d-22T----h3p0h3b----0-0-0-3-5-----5-3----------------------------------|
a-------------------------------------5-3-----2------------------------|
E-----------------------------------------5-3-0------------------------|
                      . . . .     . . . . . .


e----------------------------------------------------------------------|
b----------------------------------------------------------------------|
g----------------------------------------------------------------------|
d----------------------------------------------------------------------|
a----------------------------------------------------------------------|
E--pick-slide-on-low-E-and-A-------------------------------------------|

e-1-3-4-3-4-6-4-6-7-6-7-9-7-9-10-9-10-12-10-12-13-12-13-15-13-15-16-15-|
b----------------------------------------------------------------------|
g----------------------------------------------------------------------|
d-----fast-------------------------------------------------------------|
a----------------------------------------------------------------------|
E----------------------------------------------------------------------|

e-16-18-16-18-19fb-19fb-19fb-let-off-----------------------------------|
b----------------------------------------------------------------------|
g----------------------------------------------------------------------|
d----------------------------------------------------------------------|
a----------------------------------------------------------------------|
E----------------------------------------------------------------------|

e-10-989878767656545432123-real-fast-----------------------------------|
b----------------------------------------------------------------------|
g-------------------------------------2---2---------2---------3--------|
d-------------------------------------0-2-0-h3p0h3b-0-0-0-3-5---5-3-0--|
a---------------------------------------0------------------------------|
E----------------------------------------------------------------------|

e----------------------------------------------------------------------|
b----------------------------------------------------------------------|
g-2-----------------------2--------------------------------------------|
d-0-pick-slide-down-the---0-dont-let-ring-out--------------------------|
a---A-and-D------------------------------------------------------------|
E----------------------------------------------------------------------|
Tap to rate this tab
# A B C D E F G H I J K L M N O P Q R S T U V W X Y Z