Song name
# A B C D E F G H I J K L M N O P Q R S T U V W X Y Z

Misc Unsigned Bands - Valley Drive - Change tab

Amazingly done acoustic guitar
Tab from the composer! =]

|-----3-----3-----3-----3-----3-----3-----3-----3-|
|--0h1---0h1---0h1---0h1---0h1---0h1---0h1---0h1--|
|-2-----2-----2-----2-----0-----0-----0-----0-----|
|-------------------------------------------------| x2
|-------------------------------------------------|
|-------------------------------------------------|

Verse 1 
|-3--3--3--3--3-|
|-1--1--1--1--1-|
|-2--0--0--0--0-|
|-0--2--3--0--0-| x4
|-xxxxxxxx-3--2-|
|-xxxxxxxxxxxxx-|

Verse 2
|-2--2--2--2-|
|-2--2--2--2-|
|-0--0--0--0-| x2
|-0--0--2--0-|
|-0--3--0--0-|
|-3--0--x--3-|

Verse 3
|-3-2-3------3-2-3------3-2-3------3-2-3------3-2-3-|
|-3-3-3------3-3-3------3-3-3------3-3-3------3-3-3-|
|-2-2-2-2p0--0-0-0------0-0-0------0-0-0----0-0-0-0-|
|-0-0-0----2-2-2-2-2p0--0-0-0----0-0-0-0-0h2--0-0-0-| x2
|-x-x-x-x-x-x---------2-2-2-2-0h2-x-x-x-x-x-x-x-x-x-|
|-x-x-x-x-x-x-x-x-x-x-x-x-x-x-x-x-x-x-x-x-x-x-x-x-x-|

Verse 4
|-3-3-3-3-3-3-3-3-3-3-3-3-3-3-3-|
|-1-0-1-1-0-1-1-0-1-1-1-1-1-1-1-|
|-2-2-2-0-0-0-0-0-0-0-0-0-0-0-0-| x4
|-0-0-0-2-2-2-3-3-3-0-0-0-0-0-0-|
|-x-x-x-x-x-x-x-x-x-3-3-3-2-2-2-|
|-x-x-x-x-x-x-x-x-x-x-x-x-x-x-x-|

Thank you! Check us out! www.myspace.com/valleydriveband
Tap to rate this tab
# A B C D E F G H I J K L M N O P Q R S T U V W X Y Z