Song name
# A B C D E F G H I J K L M N O P Q R S T U V W X Y Z

Misc Unsigned Bands - Zoe Van Fleet - Village tab

This is a tab from the creator of the song, me.

Intro
|---------------------|    |---------------------|
|---------------------|    |---------------------|
|---------------------|2x  |---------------------|2x
|---------------------|    |---------------------|
|---------------------|    |---------------------|
|-3-5-0-0-0-0-0-0-0-0-|    |-5-7-0-0-0-0-0-0-0-0-|

|---------------------|
|---------------------|
|---------------------|2x
|---------------------|
|---------------------|
|-7-9-0-0-0-0-0-0-0-0-|


Middle
|-------------------------|    |-0-3-5-0-5-7-0-7-9-7-5-3-|
|-------------------------|    |-------------------------|
|-------------------------|2x  |-------------------------|2x
|-------------------------|    |-------------------------|
|-------------------------|    |-------------------------|
|-0-3-5-0-5-7-0-7-9-7-5-3-|    |-------------------------|

the rest of the middle follows the same pattern of back and forth(listen to the song for 
to this part)

Outro
|----------------------------------|---------------------------------|
|----------------------------------|---------------------------------|
|----------------------------------|---------------------------------|
|----------------------------------|---------------------------------|
|3-3-3-3-3-5-5-5-5-3-3-3-3-7-7-7-7-|-3-3-3-3-5-5-5-5-3-3-3-3-9-9-9-9-|
|3-3-3-3-3-5-5-5-5-3-3-3-3-7-7-7-7-|-3-3-3-3-5-5-5-5-3-3-3-3-9-9-9-9-|

|-------------------------|    |-------------|    |-------------|
|-------------------------|    |-------------|    |-------------|
|-------------------------|2x  |-------------|2x  |-------------|2x
|-------------------------|    |-------------|    |-------------|
|-------------------------|    |-------------|    |-------------|
|-3-5-7-9-7-0-7-5-0-5-3-0-|    |-0-0-0-0-9-7-|    |-0-0-0-0-7-5-|

|-------------|
|-------------|
|-------------|2x
|-------------|
|-------------|
|-0-0-0-0-5-3-|

Well, that's it! Play along with the song and you'll be great.
Tap to rate this tab
# A B C D E F G H I J K L M N O P Q R S T U V W X Y Z