Song name
# A B C D E F G H I J K L M N O P Q R S T U V W X Y Z

Misc Unsigned Bands - Insomnia Cafe - Insomnia tab

-------------------------------------------------------------------------------
			   "INSOMNIA" - Insomnia Café
-------------------------------------------------------------------------------

Intro
Eb|--------------------------------------------------------------------------|
Bb|--------------------------------------------------------------------------|
Gb|--------------------------------------------------------------------------|
Db|------------5-------------------------------------------------------------|
Ab|------------5-------------------------------------------------------------|
Db|--------------------------------------------------------------------------|

Main Riff (2 times)
eb|-------------------------------------------------------|----------------------|                
Bb|-------------------------------------------------------|----------------------|
Gb|-------------------------------------------------------|----------------------|
Db|-0--0*--0--5-5--3--0--0*--0--5-5--3--0--0*--0--5-5--3--|---0-0*--3-3*--5-5-5-5|
Ab|-0--0*--0--5-5--3--0--0*--0--5-5--3--0--0*--0--5-5--3--|---0-0*--3-3*--5-5-5-5|
Db|-0--0*--0--5-5--3--0--0*--0--5-5--3--0--0*--0--5-5--3--|---0-0*--3-3*--5-5-5-5|

Verse
eb|-------------------------------------------------------|           
Bb|-------------------------------------------------------|
Gb|-------------------------------------------------------| Verse 8 times
Db|-0--0*--0--5-5--3--0--0*--0--5-5--3--0--0*--0--5-5--3--|
Ab|-0--0*--0--5-5--3--0--0*--0--5-5--3--0--0*--0--5-5--3--|
Db|-0--0*--0--5-5--3--0--0*--0--5-5--3--0--0*--0--5-5--3--|
    .  .   .  . .  .  .  .   .  . .  .  .  .   .  . .  .

Chorus
eb|-------------------------------------------------------|----------------------|                
Bb|-------------------------------------------------------|----------------------|
Gb|-------------------------------------------------------|----------------------|<-- 2 parts
Db|-0--0*--0--5-5--3--0--0*--0--5-5--3--0--0*--0--5-5--3--|---1-1-1-1*--3-3-3-3*-|
Ab|-0--0*--0--5-5--3--0--0*--0--5-5--3--0--0*--0--5-5--3--|---1-1-1-1*--3-3-3-3*-|
Db|-0--0*--0--5-5--3--0--0*--0--5-5--3--0--0*--0--5-5--3--|---1-1-1-1*--3-3-3-3*-|

2nd half of chorus
eb|-------------------------------------------------------|               
Bb|-------------------------------------------------------|
Gb|-------------------------------------------------------|
Db|---1-1-1-1*--3-3-3-3*--5-5-5-5*--7-7*--8-8*------------|
Ab|---1-1-1-1*--3-3-3-3*--5-5-5-5*--7-7*--8-8*------------|
Db|---1-1-1-1*--3-3-3-3*--5-5-5-5*--7-7*--8-8*------------|

Main Riff (2 times)
eb|-------------------------------------------------------|--------------------|                
Bb|-------------------------------------------------------|--------------------|
Gb|-------------------------------------------------------|--------------------|
Db|-0--0*--0--5-5--3--0--0*--0--5-5--3--0--0*--0--5-5--3--|---0-0*--3-3*--5-5--|
Ab|-0--0*--0--5-5--3--0--0*--0--5-5--3--0--0*--0--5-5--3--|---0-0*--3-3*--5-5--|
Db|-0--0*--0--5-5--3--0--0*--0--5-5--3--0--0*--0--5-5--3--|---0-0*--3-3*--5-5--|

Verse
eb|-------------------------------------------------------|           
Bb|-------------------------------------------------------|
Gb|-------------------------------------------------------| Verse 8 times
Db|-0--0*--0--5-5--3--0--0*--0--5-5--3--0--0*--0--5-5--3--|
Ab|-0--0*--0--5-5--3--0--0*--0--5-5--3--0--0*--0--5-5--3--|
Db|-0--0*--0--5-5--3--0--0*--0--5-5--3--0--0*--0--5-5--3--|
    .  .   .  . .  .  .  .   .  . .  .  .  .   .  . .  .

Chorus
eb|-------------------------------------------------------|----------------------|                
Bb|-------------------------------------------------------|----------------------|
Gb|-------------------------------------------------------|----------------------|<-- 2 parts 
Db|-0--0*--0--5-5--3--0--0*--0--5-5--3--0--0*--0--5-5--3--|---1-1-1-1*--3-3-3-3*-|
Ab|-0--0*--0--5-5--3--0--0*--0--5-5--3--0--0*--0--5-5--3--|---1-1-1-1*--3-3-3-3*-|
Db|-0--0*--0--5-5--3--0--0*--0--5-5--3--0--0*--0--5-5--3--|---1-1-1-1*--3-3-3-3*-|

2nd half of chorus
eb|-------------------------------------------------------|               
Bb|-------------------------------------------------------|
Gb|-------------------------------------------------------|
Db|---1-1-1-1*--3-3-3-3*--5-5-5-5*--7-7*--8-8*---5-3-0----| Let 0's ring out
Ab|---1-1-1-1*--3-3-3-3*--5-5-5-5*--7-7*--8-8*---5-3-0----|
Db|---1-1-1-1*--3-3-3-3*--5-5-5-5*--7-7*--8-8*---5-3-0----|

Eb-------------------------------------------|
Bb-------------------------------------------|
Gb-------------------------------------------|
Db-0-----------------------------------------|
Ab-0---------0-0-*-0-0-0-*-0-0-0-*-0-1p0-1h3-|
Db-0---------0-0-*-0-0-0-*-0-0-0-*-0-1p0-1h3-|
             - -   - - -   - - -   -

Eb---------------------------------------------|
Bb---------------------------------------------|
Gb---------------------------------------------|
Db---------------------------------------------|
Ab-0-0-*-0-0-0-*-0-*---0-0-0-1p0-1h3-----------|
Db-0-0-*-0-0-0-*-0-*---0-0-0-1p0-1h3-----------|
   - -   - - -         - - -

Eb-------------------------------------------|
Bb-------------------------------------------|
Gb-------------------------------------------|
Db-------------------------------------------|
Ab-0-0-*-0-0-0-*-0-0-0-*-0-1p0-1h3-----------|
Db-0-0-*-0-0-0-*-0-0-0-*-0-1p0-1h3-----------|
   - -   - - -   - - -   -

Eb---------------------------------------------|
Bb---------------------------------------------|
Gb---------------------------------------------|
Db---------------------------------------------|
Ab-0-0-*-0-0-0-*-0-*---0-0-0-1p0-1h3-----------|
Db-0-0-*-0-0-0-*-0-*---0-0-0-1p0-1h3-----------|
   - -   - - -         - - -
Then Strum 1 on last one and let ring

Chorus
eb|-------------------------------------------------------|----------------------|                
Bb|-------------------------------------------------------|----------------------|
Gb|-------------------------------------------------------|----------------------|<-- 2 parts
Db|-0--0*--0--5-5--3--0--0*--0--5-5--3--0--0*--0--5-5--3--|---1-1-1-1*--3-3-3-3*-|
Ab|-0--0*--0--5-5--3--0--0*--0--5-5--3--0--0*--0--5-5--3--|---1-1-1-1*--3-3-3-3*-|
Db|-0--0*--0--5-5--3--0--0*--0--5-5--3--0--0*--0--5-5--3--|---1-1-1-1*--3-3-3-3*-|

2nd half of chorus
eb|-------------------------------------------------------|               
Bb|-------------------------------------------------------|
Gb|-------------------------------------------------------|
Db|---1-1-1-1*--3-3-3-3*--5-5-5-5*--7-7*--8-8*------------|
Ab|---1-1-1-1*--3-3-3-3*--5-5-5-5*--7-7*--8-8*------------|
Db|---1-1-1-1*--3-3-3-3*--5-5-5-5*--7-7*--8-8*------------|

Main Riff (OUTRO) *2 times*
eb|-------------------------------------------------------|--------------------|                
Bb|-------------------------------------------------------|--------------------|
Gb|-------------------------------------------------------|--------------------|
Db|-0--0*--0--5-5--3--0--0*--0--5-5--3--0--0*--0--5-5--3--|---0-0*--3-3*--5-5--|
Ab|-0--0*--0--5-5--3--0--0*--0--5-5--3--0--0*--0--5-5--3--|---0-0*--3-3*--5-5--|
Db|-0--0*--0--5-5--3--0--0*--0--5-5--3--0--0*--0--5-5--3--|---0-0*--3-3*--5-5--|
Tap to rate this tab
 
# A B C D E F G H I J K L M N O P Q R S T U V W X Y Z