Song name
# A B C D E F G H I J K L M N O P Q R S T U V W X Y Z

Misc Unsigned Bands - Perennial Faith - Vana tab

          ====\/ /-\ /\/ /-\====
         ====PERENNIAL FAITH=====

Tabbed by: DAN THA MAN
Email: metalbu94@yahoo.co.nz
guitar I [rythym guitar]
yes in this song the soloist is the rythym guitar not the lead

Tuning: standard

Alternate picking, but on the part where you repeat hitting the strings (chugging away),
just down pick. eg. the whole 2nd riff.
At the end of riff 2 you do a little Gene Simmons, (slide while letting it ring down
up the fret board to the start of the next riff)
The start is a solo that isn't able to be written down because its just tapping on the string
a specific way with a ring, as well as the solo but i have tapped out the solo as an 
way to play.
instead of the tapping intro i use the side of my pick and slide it up the fret board 
start.
enjoy.

riff 1
e|---------------------------|
B|---------------------------|
G|---------------------------|
D|---------------------------|
A|---------------------------|
E|-2-2-5-5-5-5-3-3-2-2-2-2-2-|x6

riff 2
e|---------------------------------------------------------------|
B|---------------------------------------------------------------|
G|---------------------------------------------------------------|
D|---------------------------------------------------------------|
A|---------------------------------------------------------------|
E|-2-2-2-2-2-2-2-2-5-5-5-5-5-5-5-5-3-3-3-3-3-3-3-3-7-7-7-7-7-7-7-|x1

riff 1                           extention to riff 1
e|---------------------------|  |-------|
B|---------------------------|  |-------|
G|---------------------------|  |-------|
D|---------------------------|  |-------|
A|---------------------------|  |-------|
E|-2-2-5-5-5-5-3-3-2-2-2-2-2-|x2|2--2--2|x1

riff 3
e|-----------------------------------------|
B|-----------------------------------------|
G|-----------------------------------------|
D|-----------------------------------------|
A|-----------------------------------------|
E|-0-12-10-0-12-10-10-0-12-10-7-7-7-7-8-8-9|x2

riff 1
e|---------------------------|
B|---------------------------|
G|---------------------------|
D|---------------------------|
A|---------------------------|
E|-2-2-5-5-5-5-3-3-2-2-2-2-2-|x6

riff 2
e|---------------------------------------------|
B|---------------------------------------------|
G|---------------------------------------------|
D|---------------------------------------------|
A|---------------------------------------------|
E|-2-2-2-2-2-2-2-2-5-5-5-5-5-5-5-5-7-7-7-7-7-7-|x1

riff 1                           extention to riff 1
e|---------------------------|  |-------|
B|---------------------------|  |-------|
G|---------------------------|  |-------|
D|---------------------------|  |-------|
A|---------------------------|  |-------|
E|-2-2-5-5-5-5-3-3-2-2-2-2-2-|x2|2--2--2|x1

riff 3
e|-----------------------------------------|
B|-----------------------------------------|
G|-----------------------------------------|
D|-----------------------------------------|
A|-----------------------------------------|
E|-0-12-10-0-12-10-10-0-12-10-7-7-7-7-8-8-9|x1

riff 1
e|---------------------------|
B|---------------------------|
G|---------------------------|
D|---------------------------|
A|---------------------------|
E|-2-2-5-5-5-5-3-3-2-2-2-2-2-|x6

riff 2
e|---------------------------------------------|
B|---------------------------------------------|
G|---------------------------------------------|
D|---------------------------------------------|
A|---------------------------------------------|
E|-2-2-2-2-2-2-2-2-5-5-5-5-5-5-5-5-7-7-7-7-7-7-|x1

riff 1                           extention to riff 1
e|---------------------------|  |-------|
B|---------------------------|  |-------|
G|---------------------------|  |-------|
D|---------------------------|  |-------|
A|---------------------------|  |-------|
E|-2-2-5-5-5-5-3-3-2-2-2-2-2-|x2|2--2--2|x1

riff 3
e|------------------------------------------|
B|------------------------------------------|
G|------------------------------------------|
D|------------------------------------------|
A|------------------------------------------|
E|-0-12-10-0-12-10-10-0-12-10-7-7-7-7-8-8-9-|x1

solo [version 1]
e|-12-12-12-12-12-9-9-9-9-9-7-7-7-7-7-12-12-12-12-12-9-|
B|-----------------------------------------------------|
G|-----------------------------------------------------|
D|-----------------------------------------------------|
A|-----------------------------------------------------|
E|-----------------------------------------------------|

e|-12-12-12-12-12-9-9-9-9-9-7-7-7-7-7-5-3-1p-|
B|-------------------------------------------|
G|-------------------------------------------|
D|-------------------------------------------|
A|-------------------------------------------|
E|-------------------------------------------|

e|-12-12-12-12-12-12-9-9-9-9-9-7-7-7-7-7-12-11-9-|
B|-----------------------------------------------|
G|-----------------------------------------------|
D|-----------------------------------------------|
A|-----------------------------------------------|
E|-----------------------------------------------|

e|-12-12-12-12-12-12-9-9-9-9-9-7-7-7-7-7-5-3-1p-1p-1p-|
B|----------------------------------------------------|
G|----------------------------------------------------|
D|----------------------------------------------------|
A|----------------------------------------------------|
E|----------------------------------------------------|

e|-1s17-17-17-19-19-19-15-15-15-13-12-11-10-9p-|
B|---------------------------------------------|
G|---------------------------------------------|
D|---------------------------------------------|
A|---------------------------------------------|
E|---------------------------------------------|

e|-9-0-10-0-11-0-12-0-15-12-12-12-12-12-9-9-9-9-9-7-7-7-7-7-5-3-1p-|
B|-----------------------------------------------------------------|
G|-----------------------------------------------------------------|
D|-----------------------------------------------------------------|
A|-----------------------------------------------------------------|
E|-----------------------------------------------------------------|

e|-12-12-15-15-15-15-13-13-12-12-12-12-12-|
B|----------------------------------------|
G|----------------------------------------|
D|----------------------------------------|
A|----------------------------------------|
E|----------------------------------------|

e|-12-12-15-15-15-15-13-13-12-12-12-12-12-|
B|----------------------------------------|
G|----------------------------------------|
D|----------------------------------------|
A|----------------------------------------|
E|----------------------------------------|

e|-12-12-12-12-12-12-12-15-15-15-15-15-15-15-17-17-17-17-17-17-17-|
B|----------------------------------------------------------------|
G|----------------------------------------------------------------|
D|----------------------------------------------------------------|
A|----------------------------------------------------------------|
E|----------------------------------------------------------------|

e|-12-12-15-15-15-15-13-13-12-12-12-12-12-|
B|----------------------------------------|
G|----------------------------------------|
D|----------------------------------------|
A|----------------------------------------|
E|----------------------------------------|

e|-12-12-15-15-15-15-13-13-12-12-12-12-12-|
B|----------------------------------------|
G|----------------------------------------|
D|----------------------------------------|
A|----------------------------------------|
E|----------------------------------------|

e|-0-12-10-0-12-10-10-0-12-10-7-7-7-7-8-8-9-|
B|------------------------------------------|
G|------------------------------------------|
D|------------------------------------------|
A|------------------------------------------|
E|------------------------------------------|

e|------------------------------------------|
B|------------------------------------------|
G|------------------------------------------|
D|------------------------------------------|
A|------------------------------------------|
E|-0-12-10-0-12-10-10-0-12-10-7-7-7-7-8-8-9-|


riff 1
e|---------------------------|
B|---------------------------|
G|---------------------------|
D|---------------------------|
A|---------------------------|
E|-2-2-5-5-5-5-3-3-2-2-2-2-2-|x6

riff 2
e|---------------------------------------------|
B|---------------------------------------------|
G|---------------------------------------------|
D|---------------------------------------------|
A|---------------------------------------------|
E|-2-2-2-2-2-2-2-2-5-5-5-5-5-5-5-5-7-7-7-7-7-7-|x1

riff 1                           extention to riff 1
e|---------------------------|  |-------|
B|---------------------------|  |-------|
G|---------------------------|  |-------|
D|---------------------------|  |-------|
A|---------------------------|  |-------|
E|-2-2-5-5-5-5-3-3-2-2-2-2-2-|x2|2--2--2|x1

riff 3
e|------------------------------------------|
B|------------------------------------------|
G|------------------------------------------|
D|------------------------------------------|
A|------------------------------------------|
E|-0-12-10-0-12-10-10-0-12-10-7-7-7-7-8-8-9-|x2

riff 1
e|---------------------------|
B|---------------------------|
G|---------------------------|
D|---------------------------|
A|---------------------------|
E|-2-2-5-5-5-5-3-3-2-2-2-2-2-|x2

riff 3
e|------------------------------------------|
B|------------------------------------------|
G|------------------------------------------|
D|------------------------------------------|
A|------------------------------------------|
E|-0-12-10-0-12-10-10-0-12-10-7-7-7-7-8-8-9-|x2

riff 1
e|---------------------------|
B|---------------------------|
G|---------------------------|
D|---------------------------|
A|---------------------------|
E|-2-2-5-5-5-5-3-3-2-2-2-2-2-|x2
Tap to rate this tab
 
# A B C D E F G H I J K L M N O P Q R S T U V W X Y Z