Song name
# A B C D E F G H I J K L M N O P Q R S T U V W X Y Z

Misc Unsigned Bands - Stiff Whisker And The Driftwood Kids - Right Thing tab

-------------------------------------------------------------------------------
              Right Thing - Stiff Whisker and the Driftwood Kids
-------------------------------------------------------------------------------
	Tabbed by: DriftwoodGibb
	Email:gibb@stiffwhisker.com

	Tuning:Standard
	Capo 3rd Fret

	   intro/verse/outro
	e|--------------------------------------------------|
	B|--1--1----1--1----1--1----1--1--------------------|
	G|--0--2----0--2----0--0----0--0--------------------|
	D|--3--3----3--3----0--2----0--2--------------------|
	A|--3--3----3--3----3--3----3--3--------------------|
	E|------------------3--3----3--3--------------------|

	   chorus
	e|-------1--------------------1---------------------|
	B|--1----1----1--1-------1----1----1--1-----1--1----|
	G|--2---------2--2-------2---------2--2-----0--0----|
	D|--2---------3--3-------2---------3--3-----2--2----|
	A|-------2----3--3------------2----3--3-----3--3----|
	E|-------3--------------------3-------------3--3----|


| /  slide up
| \  slide down
| h  hammer-on
| p  pull-off
| ~  vibrato
| +  harmonic
| x  Mute note
===============================================================================
Tap to rate this tab
 
# A B C D E F G H I J K L M N O P Q R S T U V W X Y Z