Song name
# A B C D E F G H I J K L M N O P Q R S T U V W X Y Z

Misc Unsigned Bands - Hemo - Veneciana tab

   I figured that I'd make some tabs for this because lots of people on youtube wanted
learn it and I figured it out after some long hours of listening to the song. If you find
mistakes or you think a part is played differently, send me some mail or add a comment 
my youtube page(http://www.youtube.com/user/KeyString7)and I'll be sure to read it.
this helps. Enjoy. (If you want to hear the real song played by hemo, since hes not so 
go to...(http://www.youtube.com/watch?v=0FB1fAt7xSc)


LEGEND
V = vibrate

(Part one of intro)
|-------7----------------------------------------|
|------------10---8--7--8--10--8-----------------|
|------9--9----9---9--9--9---9---9---------------|
|------------------------------------------------|
|------------------------------------------------|
|-0-0--------------------------------------------|

(Part two of intro)
|------7----------------|
|----------10--8--------| Yes, you do have to hold two frets with one finger
|----9--9----9--9-------| (the 8 at the bottom and the 7 at the top)
|-----------------------|
|-----------------------|
|-8---------------------|


(Part three of intro)
|------7---------------------------------------|
|----------10--8-------------------------------|
|----9--9----9--9------------------------------|
|-0--------------------------------------------|
|----------------------------------------------|
|----------------------------------------------|

   Then play the whole thing again, except in part one, only do one "0" at the beginning
of two. So you play the whole thing twice before moving onto the next level of the intro.

(NEXT LEVEL OF INTRO)

|-----7-7-7-7-7v--10-7-8-----7-------------|
|-------------------------10---------------|
|------------------------------------------|
|------------------------------------------|
|------------------------------------------|
|------------------------------------------|


|-----------------------------------|
|--8-8-8-8-8v-10-7-8---7------------|
|--------------------9--------------|
|-----------------------------------|
|-----------------------------------|
|-----------------------------------|


|----------------------------|
|-------------------7-8v-----|
|------9-9-9-9-9-------------|
|----------------------------| x3
|----------------------------|
|----------------------------|

|----------------7-----------------------|
|----------------7-----------------------|
|--------9-9-9-9-9-----------------------|
|----------------------------------------|
|----------------------------------------|
|----------------------------------------|
(In this last part i couldn't figure out what that ending was so i added the strum)

   I know other parts of this song but i figured that if you really wanted to learn the
you would try playing it by ear yourself.

:)
Tap to rate this tab
# A B C D E F G H I J K L M N O P Q R S T U V W X Y Z