Song name
# A B C D E F G H I J K L M N O P Q R S T U V W X Y Z

Misc Unsigned Bands - Kyle Riemer - The Epic Comeback tab

The epic comeback (short warm-up song)
Kyle Riemer
Standard (Note: remember to put on bridge pick-up)

Part 1
e--------5-------6-------5------8--------6----------5---------------|
b----6--------6-------6------6--------6----------8-------6----------|
g-7--------7-------7-------7-------7----------7-------7----6~-------|
d-------------------------------------------------------------------|
a-------------------------------------------------------------------|
e-------------------------------------------------------------------| x2

Part 2
e-------------------------------------------------|
b-------------------------------------------------|
g-12h13h15--18-17-15-15h17p15-13------------------|
d-------------------------------------------------|
a-------------------------------------------------|
e-------------------------------------------------|

Part 3
e-------------------------------------------------|
b-11-13-15---16-15-13-13h15p13-11-----------------|
g-------------------------------------------------|
d-------------------------------------------------|
a-------------------------------------------------|
e-------------------------------------------------|

Part 4
e----------------------------------------------------------|
b-19--17--15--14----19-17-19-20-19--17---------------------|
g-------------------------------------------------------19-|
d----------------------------------------------------------|
a----------------------------------------------------------|
e----------------------------------------------------------|

Part 5 (All tremolo picked)
e--------------------------------------|
b--------------------------------------|
g-15-15-15-15-19-19-20-20--------------|
d--------------------------------------|
a--------------------------------------|
e--------------------------------------| x4


Part 6 (All tremolo picked)
e-------------------------------------|
b-------------------------------------|
g-13-13-13-13-17-17-18-18-------------|
d-------------------------------------|
a-------------------------------------|
e-------------------------------------| x4

Part 7
e---------------------|
b---------------------|
g-15---13----12~------|
d---------------------|
a---------------------|
e---------------------|
Tap to rate this tab
# A B C D E F G H I J K L M N O P Q R S T U V W X Y Z