Song name
# A B C D E F G H I J K L M N O P Q R S T U V W X Y Z

Misc Unsigned Bands - Excorsizer - Every Dead Thing tab

Song: EVERY DEAD THING

Artist: Excorsizer

Written By: Brandon M. Wirick and Ethan Kitchens

Verse/Rhythm

D||--------------------------------------|  Times-6
A||--------------------------------------|
F||--------------------------------------|
C||---3~---0~----------------------------|
G||---3~---0~---2-22-22-22-22-0--2-22-22-|
C||---3~---0~---2-22-22-22-22-0--2-22-22-|
                  x  x  x  x       x  x

Guitar Solo: Intro

D||---9~----10~----12~--12---12---12--12--12~|
A||---12b---13b----15b--15b--15b--15b-15b-15b|
F||------------------------------------------|
C||------------------------------------------|
G||------------------------------------------|
C||------------------------------------------|


D||---17-13----------13-17-13----------13/22b-22b~|
A||---------15----15----------15----15------------|
F||------------14----------------14---------------|
C||-----------------------------------------------|
G||-----------------------------------------------|
C||-----------------------------------------------|


D||---13-13-13-12-12-12-13-13-13-15-15-15-13-13-13-12-12-12-13\x|
A||-------------------------------------------------------------|
F||-------------------------------------------------------------|
C||-------------------------------------------------------------|
G||-------------------------------------------------------------|
C||-------------------------------------------------------------|


D||-------------------------------------------------------------|
A||---0p^(pick squeel using wammy bar to increase pitch slowly)-|
F||-------------------------------------------------------------|
C||-------------------------------------------------------------|
G||-------------------------------------------------------------|
C||-------------------------------------------------------------|


CHORUS

Rythm:

D||--------|:------------------------------|  (Go back to repeat)
A||--------|:------------------------------|   Xs-2
F||--------|:------------------------------|
C||--3~--0~|:---------------------5-4------|
G||--3~--0~|:--2~---0~---5~---4~-----------|
C||--3~--0~|:--2~---0~---5~---4~-----------|


Lead:


D||----------------------------------------------------------|  
A||----------------------------------------------------------|
F||----------------------------------------------------------|
C||---------------------------9-10-7-7-7-7-7-7-7-7-7-7-7-5-4-|
G||---7-7-7-7-7-7-7-7-7-7-7-7--------------------------------|
C||----------------------------------------------------------|


D||----------------------------------------------------------|  
A||----------------------------------------------------------|
F||----------------------------------------------------------|
C||--5-5-5-5-5-5-5-5-5-5-5-5-7-5-4-4-4-4-4-4-4-4-4-4-4-4-5-4-|
G||----------------------------------------------------------|
C||----------------------------------------------------------|


D||----------------------------------------------------------|  
A||----------------------------------------------------------|
F||----------------------------------------------------------|
C||--------------------------9-10-7-7-7-7-7-7-7-7-7-7-7-10-9-|
G||--7-7-7-7-7-7-7-7-7-7-7-7---------------------------------|
C||----------------------------------------------------------|


D||----------------------------------------------------------|  
A||----------------------------------------------------------|
F||----------------------------------------------------------|
C||--5-5-5-5-5-5-5-5-5-5-5-5-9-7-4-4-4-4-4-4-4-4-4-4-4-4-5-4-|
G||----------------------------------------------------------|
C||----------------------------------------------------------|

(THIS NEXT PART IS ONLY AFTER THE FIRST CHORUS)

                     "Ya..!"
D||--------------------------------------|  Times-6
A||--------------------------------------|
F||--------------------------------------|
C||--------------------------------------|
G||---2-22-22-22-22x---------------------|
C||---2-22-22-22-22x---------------------|
        x  x  x  x

(Back to Verse)Xs-6

Guitar Solo: Verse two

D||---15-14-12-15-14-12-15-14-12-15-14-12-15-14-12-15-14-12-15-14-12-|
A||------------------------------------------------------------------|
F||------------------------------------------------------------------|
C||------------------------------------------------------------------|
G||------------------------------------------------------------------|
C||------------------------------------------------------------------|


D||---15-14-12-15-14-12-15-14-12-15-14-12-15-14-12-15b--15b--15b-----|
A||------------------------------------------------------------------|
F||------------------------------------------------------------------|
C||------------------------------------------------------------------|
G||------------------------------------------------------------------|
C||------------------------------------------------------------------|

D||---15-14-12-15-14-12----------------------------------------------|
A||---------------------15-14-12-15-14-12----------------------------|
F||---------------------------------------14-12-10-12-14-12-10-------|
C||------------------------------------------------------------------|
G||------------------------------------------------------------------|
C||------------------------------------------------------------------|

D||-----------------------------------12-15-12---------------12-15-|
A||--------------------------------13----------13---------13-------|
F||-----------------------------12---------------12----12----------|
C||--14-12-10-12-14-12-10----14---------------------14-------------|
G||-----------------------15---------------------------------------|
C||----------------------------------------------------------------|

D||--12----12-15-17b--17b~-----------------------------------------|
A||-----13---------------------------------------------------------|
F||----------------------------------------------------------------|
C||----------------------------------------------------------------|
G||----------------------------------------------------------------|
C||----------------------------------------------------------------|


To be continued...
Tap to rate this tab
 
# A B C D E F G H I J K L M N O P Q R S T U V W X Y Z